Sound will begin in 5 seconds

All The Kings Horses Bass

01234567891011121314151617181920212223
E
B
G
D
A
E
B
0 1 2 3 4 5 6 7 8 9 10 11 12 13 14 15 16 17 18 19 20 21 22 23
Song Science #1: How Pros Use 6 Chords to Write Hit Songs
(/) Slide Up  (\) Slide Down  (h) Hammer On  (p) Pull Off  (b) Bend (r) Release (v) Vibrato

Stave 1:

G|--------------|--------------------|--------------|-----------3--2--0--|--
D|--0--0--0--0--|--0--0--0--2--3--5--|--0--0--0--0--|--0--0--0-----------|--
A|--------------|--------------------|--------------|--------------------|--
E|--------------|--------------------|--------------|--------------------|--

Stave 2:

G|--2-----0-----------------|--------------------------|----------------------------------|--
D|-----3-----2--3--0--2-----|--0-----------------------|--------------------------------7\|--
A|-----------------------3--|-----1--3--0--1-----0-----|--6--5--3--5-----------3--5--4----|--
E|--------------------------|-----------------3-----3--|--------------3--5--6-------------|--

Stave 3:

G|--------|--------|--------|--------------------|--
D|--------|--------|--------|--------------------|--
A|--5--5--|--3--3--|--1--1--|--0--5--5--3--------|--
E|--------|--------|--------|--------------6--5--|--

Stave 4:

G|--------------------------|--------------------------|--------------------------|--
D|--5--5--5--5--5--5--5--7--|--8--8--8--7--5--5--5-----|--------------------------|--
A|--------------------------|-----------------------8--|--6--6--6--6--6--6--6--8--|--
E|--------------------------|--------------------------|--------------------------|--

Stave 5:

G|--------------------------|--
D|--5--5--5-----------------|--
A|-----------8--6--6--6--5--|--
E|--------------------------|--

http://www.guitartabcreator.com
Guitar Tab Creator is intended to store guitar tab created through the tool. It currently does not support in-line text editing. Any text you place in here will be lost. If you need to comment on your tab, please use the "Tab Notes" section located below.