Sound will begin in 5 seconds

Chispa Adecuada

Chords
01234567891011121314151617181920212223
E
B
G
D
A
E
B
0 1 2 3 4 5 6 7 8 9 10 11 12 13 14 15 16 17 18 19 20 21 22 23
Song Science #1: How Pros Use 6 Chords to Write Hit Songs
(/) Slide Up  (\) Slide Down  (h) Hammer On  (p) Pull Off  (b) Bend (r) Release (v) Vibrato

Stave 1:

E|----------------------------------------------------------------------------------
B|----------------------------------------------------------------------------------
G|------------------10-----9-------------9h10--9-------------------------0----------
D|---------------0------0-----10-----10-----------10-----------8-----10--10-----10--
A|--------------------------------0-------------------0-----8-----8----------8------
E|--8--8/10--10------------------------------------------6--------------------------

Stave 2:

E|-----------------------------------------------------|------------------------------
B|---------------------------------------10------------|------------------10------10--
G|------------------10-----9-----------------9---------|------------------10------10--
D|---------------0------0-----10-----10---------10-----|--------8-----10------10------
A|--------------------------------0-----------------0--|-----8-----8------------------
E|--8--8/10--10----------------------------------------|--6---------------------------

Stave 3:

E|--2--x--3--|--5-----x--
B|--3--x--3--|--6-----x--
G|--2--x--4--|--7--3--5--
D|-----4--5--|--7--3--5--
A|-----4--5--|--5--1--3--
E|-----x--3--|--5-----x--

Stave 4:

E|-----------------------
B|-----------------------
G|--10--9p7--------------
D|-----------9-----------
A|--------------8--------
E|-----------------8/10--

http://www.guitartabcreator.com
Guitar Tab Creator is intended to store guitar tab created through the tool. It currently does not support in-line text editing. Any text you place in here will be lost. If you need to comment on your tab, please use the "Tab Notes" section located below.