Kiss The Rain

01234567891011121314151617181920212223
E
B
G
D
A
E
B
0 1 2 3 4 5 6 7 8 9 10 11 12 13 14 15 16 17 18 19 20 21 22 23
(/) Slide Up  (\) Slide Down  (h) Hammer On  (p) Pull Off  (b) Bend (r) Release (v) Vibrato



E|---------------------------------------------------|-----0--2--2--3--3--------5--5/7--5--3--2--------------|--
B|-------------0--0----------------0-----3--3--------|--3--------------0-----0----------------------3-----0--|--
G|-----0/2--2-----2-----2-----0/2-----2-----2-----2--|--------------------0----------------------4-----4-----|--
D|--0----------------0-----0-------------------0-----|----------------------------------------0--------------|--
A|---------------------------------------------------|-------------------------------------------------------|--
E|----------3-------------------------2--------------|-----------0-------------------------------------------|--



E|--3--2--------0--0-----------------------------------|---------------------------------------------------|--
B|--------3--3-----3-----3-----1--3--1--1--3--3--------|-------0--0--1--1--------3--1--0-------------------|--
G|--------------------0-----0-----------------0-----0--|--0/2-----------0-----0-----------0--------0--0/2--|--
D|-----------------------------------------------0-----|-------------------2-----------0-----12h-----------|--
A|-----------3--------------------------2--------------|----------0----------------------------------------|--
E|-----------------------------------------------------|---------------------------------------------------|--



E|--3--2--------0--0-----------------------------------|-------------------------------------------|--
B|--------3--3-----3-----3-----1--3--1--1--3--3--------|-------0--0--1--------------------1--3--0--|--
G|--------------------0-----0-----------------0-----0--|--0/2-----------2-----0-----0--------------|--
D|-----------------------------------------------0-----|-------------------2-----4-----0-----------|--
A|-----------3--------------------------2--------------|----------0-----------5--------------------|--
E|-----------------------------------------------------|----------------------------3-----------3--|--



E|-----------0--------------------0-----------------|-------------------------------------------------|--
B|-----0--3--------3-----1-----------3--------------|--------3--3--1--1--0--0-------------0--0--------|--
G|--0-----------0-----0--------0-----------0-----0--|-----0-----------0--------2--2/0--2-----2-----0--|--
D|--------------------------4-----------0-----0-----|--4--------------------0-------------------0-----|--
A|-----------3-----------------------2--------------|-----------0-------------------------------------|--
E|--------------------------------------------------|----------------------------------3--------------|--



E|-----------0--------------2--2--0-----------|---------------------------------0-----2--3--7-----------5--|--
B|--------3--------0-----------------3--------|--0/1--3-----1--0--0/1-----3-----------------------5--------|--
G|-----0--------0-----0--------3-----------4--|----------1--1----------------------0-----------5-----5-----|--
D|--4-----------------------------------4-----|------------------------2-----2--------------0--------------|--
A|-----------4-----------------------2--------|-------------------0----------------------------------------|--
E|-----------------------2--------------------|-------0----------------------------------------------------|--



E|--5--7--7--8-----3--2--3-----3-----3-|--
B|--------5-----5--1--1--1-----0-----0-|--
G|--------5--------0--2--2-----2--2--2-|--
D|--------0--------3--0-----0--------0-|--
A|-----------------------------------0-|--
E|-----------------------3-----------3-|--

							http://www.guitartabcreator.com
Chords

Instruments
{"strings":[[[".","_","_","_","_","_","_","_","_","_","_","_","_","_","_","_","_","_","_","|","_",0,2,2,3,3,"_","_",5,5,"/",7,5,3,2,"_","_","_","_","|"],[".","_","_","_","_",0,0,"_","_","_","_","_","_",0,"_",3,3,"_","_","|",3,"_","_","_","_",0,"_",0,"_","_","_","_","_","_","_","_",3,"_",0,"|"],[".",0,"/",2,2,"_",2,"_",2,"_",0,"/",2,"_",2,"_",2,"_",2,"|","_","_","_","_","_","_",0,"_","_","_","_","_","_","_","_",4,"_",4,"_","|"],[0,"_","_","_","_","_","_",0,"_",0,"_","_","_","_","_","_","_",0,"_","|","_","_","_","_","_","_","_","_","_","_","_","_","_","_",0,"_","_","_","_","|"],[".","_","_","_","_","_","_","_","_","_","_","_","_","_","_","_","_","_","_","|","_","_","_","_","_","_","_","_","_","_","_","_","_","_","_","_","_","_","_","|"],[".","_","_","_",3,"_","_","_","_","_","_","_","_","_",2,"_","_","_","_","|","_","_","_",0,"_","_","_","_","_","_","_","_","_","_","_","_","_","_","_","|"]],[[3,2,"_","_",0,0,"_","_","_","_","_","_","_","_","_","_","_","|","_","_","_","_","_","_","_","_","_","_","_","_","_","_","_","_","_","_","_","_","|"],[".","_",3,3,"_",3,"_",3,"_",1,3,1,1,3,3,"_","_","|","_","_","_",0,0,1,1,"_","_",3,1,0,"_","_","_","_","_","_","_","_","|"],[".","_","_","_","_","_",0,"_",0,"_","_","_","_","_",0,"_",0,"|",0,"/",2,"_","_","_",0,"_",0,"_","_","_",0,"_","_","_",0,0,"/",2,"|"],[".","_","_","_","_","_","_","_","_","_","_","_","_","_","_",0,"_","|","_","_","_","_","_","_","_",2,"_","_","_",0,"_",12,"h","_","_","_","_","_","|"],[".","_","_",3,"_","_","_","_","_","_","_","_",2,"_","_","_","_","|","_","_","_","_",0,"_","_","_","_","_","_","_","_","_","_","_","_","_","_","_","|"],[".","_","_","_","_","_","_","_","_","_","_","_","_","_","_","_","_","|","_","_","_","_","_","_","_","_","_","_","_","_","_","_","_","_","_","_","_","_","|"]],[[3,2,"_","_",0,0,"_","_","_","_","_","_","_","_","_","_","_","|","_","_","_","_","_","_","_","_","_","_","_","_","_","_","_","|"],[".","_",3,3,"_",3,"_",3,"_",1,3,1,1,3,3,"_","_","|","_","_","_",0,0,1,"_","_","_","_","_","_",1,3,0,"|"],[".","_","_","_","_","_",0,"_",0,"_","_","_","_","_",0,"_",0,"|",0,"/",2,"_","_","_",2,"_",0,"_",0,"_","_","_","_","|"],[".","_","_","_","_","_","_","_","_","_","_","_","_","_","_",0,"_","|","_","_","_","_","_","_","_",2,"_",4,"_",0,"_","_","_","|"],[".","_","_",3,"_","_","_","_","_","_","_","_",2,"_","_","_","_","|","_","_","_","_",0,"_","_","_",5,"_","_","_","_","_","_","|"],[".","_","_","_","_","_","_","_","_","_","_","_","_","_","_","_","_","|","_","_","_","_","_","_","_","_","_","_",3,"_","_","_",3,"|"]],[[".","_","_",0,"_","_","_","_","_","_",0,"_","_","_","_","_","|","_","_","_","_","_","_","_","_","_","_","_","_","_","_","_","_","_","|"],[".",0,3,"_","_",3,"_",1,"_","_","_",3,"_","_","_","_","|","_","_",3,3,1,1,0,0,"_","_","_","_","_",0,0,"_","_","|"],[0,"_","_","_",0,"_",0,"_","_",0,"_","_","_",0,"_",0,"|","_",0,"_","_","_",0,"_","_",2,2,"/",0,2,"_",2,"_",0,"|"],[".","_","_","_","_","_","_","_",4,"_","_","_",0,"_",0,"_","|",4,"_","_","_","_","_","_",0,"_","_","_","_","_","_","_",0,"_","|"],[".","_","_",3,"_","_","_","_","_","_","_",2,"_","_","_","_","|","_","_","_",0,"_","_","_","_","_","_","_","_","_","_","_","_","_","|"],[".","_","_","_","_","_","_","_","_","_","_","_","_","_","_","_","|","_","_","_","_","_","_","_","_","_","_","_","_",3,"_","_","_","_","|"]],[[".","_","_",0,"_","_","_","_",2,2,0,"_","_","_","|","_","_","_","_","_","_","_","_","_","_","_","_","_",0,"_",2,3,7,"_","_","_",5,"|"],[".","_",3,"_","_",0,"_","_","_","_","_",3,"_","_","|",0,"/",1,3,"_",1,0,0,"/",1,"_",3,"_","_","_","_","_","_","_",5,"_","_","|"],[".",0,"_","_",0,"_",0,"_","_",3,"_","_","_",4,"|","_","_","_","_",1,1,"_","_","_","_","_","_","_","_",0,"_","_","_",5,"_",5,"_","|"],[4,"_","_","_","_","_","_","_","_","_","_","_",4,"_","|","_","_","_","_","_","_","_","_","_","_",2,"_",2,"_","_","_","_",0,"_","_","_","_","|"],[".","_","_",4,"_","_","_","_","_","_","_",2,"_","_","|","_","_","_","_","_","_","_",0,"_","_","_","_","_","_","_","_","_","_","_","_","_","_","|"],[".","_","_","_","_","_","_",2,"_","_","_","_","_","_","|","_","_","_",0,"_","_","_","_","_","_","_","_","_","_","_","_","_","_","_","_","_","_","|"]],[[5,7,7,8,"_",3,2,3,"_",3,"_",3,"h","|"],[".","_",5,"_",5,1,1,1,"_",0,"_",0,"h","|"],[".","_",5,"_","_",0,2,2,"_",2,2,2,"h","|"],[".","_",0,"_","_",3,0,"_",0,"_","_",0,"h","|"],[".","_","_","_","_","_","_","_","_","_","_",0,"h","|"],[".","_","_","_","_","_","_",3,"_","_","_",3,"h","|"]]],"numberofstrings":6,"notes":["E","B","G","D","A","E","B"],"capo":0,"stringnotes":["E4","B3","G3","D3","A2","E2"],"comments":["","","","","",""],"timing":[["W","W","W","W","W","W","W","W","W","W","W","W","W","W","W","W","W","W","W","W","W","W","W","W","W","W","W","W","W","W","W","W","W","W","W","W","W","W","W","W","W"],["W","W","W","W","W","W","W","W","W","W","W","W","W","W","W","W","W","W","W","W","W","W","W","W","W","W","W","W","W","W","W","W","W","W","W","W","W","W","W","W"],["W","W","W","W","W","W","W","W","W","W","W","W","W","W","W","W","W","W","W","W","W","W","W","W","W","W","W","W","W","W","W","W","W","W"],["W","W","W","W","W","W","W","W","W","W","W","W","W","W","W","W","W","W","W","W","W","W","W","W","W","W","W","W","W","W","W","W","W","W","W"],["W","W","W","W","W","W","W","W","W","W","W","W","W","W","W","W","W","W","W","W","W","W","W","W","W","W","W","W","W","W","W","W","W","W","W","W","W","W"],["W","W","W","W","W","W","W","W","W","W","W","W","W"]],"timingvisible":false,"tabcounter":14,"stave":4,"totalstaves":6,"instrument":"6guitar","selectedtuning":"6_standard","version":"13"}

Member for

8 months 2 weeks
Submitted by yidicaj790@rmo… on Fri, 2021-06-04 20:37