Fly Me To The Moon

01234567891011121314151617181920212223
E
B
G
D
A
E
B
0 1 2 3 4 5 6 7 8 9 10 11 12 13 14 15 16 17 18 19 20 21 22 23
(/) Slide Up  (\) Slide Down  (h) Hammer On  (p) Pull Off  (b) Bend (r) Release (v) Vibrato



E|-----8-----------8--------8-----------8--------|-----------0--------0-0-----0-0-----|--
B|--5-----5-----6-----6--7-----7-----6-----6-----|-----3--x--3-----x--0-0--x--0-0--x--|--
G|--5-----5-----5-----5--5-----5-----5-----5-----|-----0-----0--0-----2-2-----1-1-----|--
D|-----------------------------------------------|-----3--------------2-2-----0-0-----|--
A|--0--------0--0--------0--------0--0--------0--|--1--------1--------2-2-----2-2-----|--
E|-----------------------------------------------|--------------------0-0-----0-0-----|--



E|-----8-----7/5-----------------------5--8-----7--|-----7-----5----------------------------------|--
B|-----5--x--5----8--x--6-----6--x--8--------x-----|-----6--x--6--8--6--x--5-----5--x-------5-----|--
G|-----5-----5----------------5-----5--------------|-----7-----7-----------------4----------3-----|--
D|-------------------------0--------0--------------|--5--------5-----------------5----------5-----|--
A|--0--------0-------------------------------------|--------------------------3--------2/3-----3--|--
E|-------------------------------------------------|----------------------------------------------|--



E|-----5-----3-----------------------0--1/5--4--|-----4-----1/0-------------------------------|--
B|--------x-----6--5--x--3-----3--x--3----x-----|-----0--x--0----3--x--1-----1--x-------------|--
G|-----5-----5-----------------0-----0----------|-----1-----1----------------0----------6-----|--
D|--3--------3-----------------3----------------|----------------------------2----------5-----|--
A|--------------------------1--------1----------|-------------------------0-------------------|--
E|----------------------------------------------|--0--------0----------------------4/5-----5--|--



E|--------5-----5-----------------8/7-----|--------------------------------------------|--
B|--3--x--------6--x-----0--x--0-------8--|-----8-----------8-----------8--x--8-----x--|--
G|--2--------------------0-----0----------|-----7-----------7-----------7-----7--7-----|--
D|--0--------0----------------------------|--------------------------------------------|--
A|----------------------------------------|--------------------------------------------|--
E|--------------------3--------3----------|--8-----8--0--7-----7--0--6--------6--------|--



E|-------------------------------------5--3--1--|--1-----0--------0-0-----0-0-----|--
B|--1--x--1-6--6--x-----------0--x--0-----------|--0--x--0-----x--3-3--x--0-0--x--|--
G|--2-----2-7--7-----7--------0-----0-----------|--0-----0--0-----0-0-----1-1-----|--
D|--0-----0-------------0-----------------------|-----------------3-3-----0-0-----|--
A|----------------------------------------------|--3-----2--------1-1-----2-2-----|--
E|-------------------------3--------3-----------|-------------------------0-0-----|--



E|-----8--7--5--3-----------3/5--8-----7--|-----7-----5-------------------------------------|--
B|-----5--5-----------6--x----------x-----|-----6--x-----8--6--x--5-----5--x-------5--------|--
G|-----5--5-----------5-------------------|-----7-----------------------4----------3--------|--
D|----------------------------------------|--5--------7-----------------5----------5--------|--
A|--0-----------4--5--------4-------------|--------------------------3--------2/3-----3-----|--
E|--------7--8----------------------------|----------------------------------------------0--|--



E|-----5--3--1--0-----------0--1/5--4--|-----4-----1/0----------------------|--
B|--------------------3--x--3----x-----|-----0----------3--1--x-------------|--
G|--------------------0-----0----------|-----1-------------0----------6-----|--
D|--------------------3----------------|-------------------2----------5-----|--
A|--------------0--1--------1----------|-------------------0----------------|--
E|--1-----3--4-------------------------|--0-----2--3----4--------4/5-----5--|--



E|-----5-----5-------------------8/7--|--12--10/9/8/7--8--9--7-----------------12--|--
B|--------x--6-------------x----------|-------------------------8------------------|--
G|--7--------7----------4-----4-------|----------------------------9--8--7--6------|--
D|----------------------5-----5-------|--------------------------------------------|--
A|--5--------5------------------------|--------------------------------------------|--
E|--------------5/4--3--------3-------|--------------------------------------------|--



E|--12-------------------------------8/7--8--|-----8-----------8-----------8-----8--------12--|--
B|------10--x--10-13--x-----0--x--0----------|--------------------------------x--------x------|--
G|------10-----10-13--------0-----0----------|-----7-----------7-----------7-----7--7---------|--
D|-------------0-----------------------------|------------------------------------------------|--
A|-------------------------------------------|------------------------------------------------|--
E|--0--------------------3--------3----------|--8-----8--0--7-----7--0--6--------6------------|--



E|--12-------------------------------8/7--8--|-----8-----8--------8--|--
B|------10--x--10-13--x-----0--x--0----------|-----6--x--6-----x--5--|--
G|------10-----10-13--------0-----0----------|-----7-----7--7-----7--|--
D|-------------0-----------------------------|-----------------------|--
A|-------------------------------------------|-----------------------|--
E|--0--------------------3--------3----------|--8--------8--------8--|--

							http://www.guitartabcreator.com
Chords

Instruments
{"strings":[[[".",8,".",".",".",8,".",".",8,".",".",".",8,".",".","|",".",".",".",0,".",".",0,"r",0,".",0,"r",0,".","|"],[5,".",5,".",6,".",6,7,".",7,".",6,".",6,".","|",".",3,"x",3,".","x",0,"r",0,"x",0,"r",0,"x","|"],[5,".",5,".",5,".",5,5,".",5,".",5,".",5,".","|",".",0,".",0,0,".",2,"r",2,".",1,"r",1,".","|"],[".",".",".",".",".",".",".",".",".",".",".",".",".",".",".","|",".",3,".",".",".",".",2,"r",2,".",0,"r",0,".","|"],[0,".",".",0,0,".",".",0,".",".",0,0,".",".",0,"|",1,".",".",1,".",".",2,"r",2,".",2,"r",2,".","|"],[".",".",".",".",".",".",".",".",".",".",".",".",".",".",".","|",".",".",".",".",".",".",0,"r",0,".",0,"r",0,".","|"]],[[".",8,".",7,"/",5,".",".",".",".",".",".",".",5,8,".",7,"|",".",7,".",5,".",".",".",".",".",".",".",".",".",".",".",".","|"],[".",5,"x",5,".",".",8,"x",6,".",6,"x",8,".",".","x",".","|",".",6,"x",6,8,6,"x",5,".",5,"x",".",".",".",5,".","|"],[".",5,".",5,".",".",".",".",".",".",5,".",5,".",".",".",".","|",".",7,".",7,".",".",".",".",".",4,".",".",".",".",3,".","|"],[".",".",".",".",".",".",".",".",".",0,".",".",0,".",".",".",".","|",5,".",".",5,".",".",".",".",".",5,".",".",".",".",5,".","|"],[0,".",".",0,".",".",".",".",".",".",".",".",".",".",".",".",".","|",".",".",".",".",".",".",".",".",3,".",".",2,"/",3,".",3,"|"],[".",".",".",".",".",".",".",".",".",".",".",".",".",".",".",".",".","|",".",".",".",".",".",".",".",".",".",".",".",".",".",".",".",".","|"]],[[".",5,".",3,".",".",".",".",".",".",".",0,1,"/",5,4,"|",".",4,".",1,"/",0,".",".",".",".",".",".",".",".",".",".",".","|"],[".",".","x",".",6,5,"x",3,".",3,"x",3,".",".","x",".","|",".",0,"x",0,".",".",3,"x",1,".",1,"x",".",".",".",".",".","|"],[".",5,".",5,".",".",".",".",".",0,".",0,".",".",".",".","|",".",1,".",1,".",".",".",".",".",".",0,".",".",".",".",6,".","|"],[3,".",".",3,".",".",".",".",".",3,".",".",".",".",".",".","|",".",".",".",".",".",".",".",".",".",".",2,".",".",".",".",5,".","|"],[".",".",".",".",".",".",".",".",1,".",".",1,".",".",".",".","|",".",".",".",".",".",".",".",".",".",0,".",".",".",".",".",".",".","|"],[".",".",".",".",".",".",".",".",".",".",".",".",".",".",".",".","|",0,".",".",0,".",".",".",".",".",".",".",".",4,"/",5,".",5,"|"]],[[".",".",5,".",5,".",".",".",".",".",8,"/",7,".","|",".",".",".",".",".",".",".",".",".",".",".",".",".",".","|"],[3,"x",".",".",6,"x",".",0,"x",0,".",".",".",8,"|",".",8,".",".",".",8,".",".",".",8,"x",8,".","x","|"],[2,".",".",".",".",".",".",0,".",0,".",".",".",".","|",".",7,".",".",".",7,".",".",".",7,".",7,7,".","|"],[0,".",".",0,".",".",".",".",".",".",".",".",".",".","|",".",".",".",".",".",".",".",".",".",".",".",".",".",".","|"],[".",".",".",".",".",".",".",".",".",".",".",".",".",".","|",".",".",".",".",".",".",".",".",".",".",".",".",".",".","|"],[".",".",".",".",".",".",3,".",".",3,".",".",".",".","|",8,".",8,0,7,".",7,0,6,".",".",6,".",".","|"]],[[".",".",".",".",".",".",".",".",".",".",".",".",".",5,3,1,"|",1,".",0,".",".",0,"r",0,".",0,"r",0,".","|"],[1,"x",1,"/",6,6,"x",".",".",".",0,"x",0,".",".",".","|",0,"x",0,".","x",3,"r",3,"x",0,"r",0,"x","|"],[2,".",2,"/",7,7,".",7,".",".",0,".",0,".",".",".","|",0,".",0,0,".",0,"r",0,".",1,"r",1,".","|"],[0,".",0,".",".",".",".",".",0,".",".",".",".",".",".",".","|",".",".",".",".",".",3,"r",3,".",0,"r",0,".","|"],[".",".",".",".",".",".",".",".",".",".",".",".",".",".",".",".","|",3,".",2,".",".",1,"r",1,".",2,"r",2,".","|"],[".",".",".",".",".",".",".",".",".",3,".",".",3,".",".",".","|",".",".",".",".",".",".",".",".",".",0,"r",0,".","|"]],[[".",8,7,5,3,".",".",".",3,"/",5,8,".",7,"|",".",7,".",5,".",".",".",".",".",".",".",".",".",".",".",".",".","|"],[".",5,5,".",".",".",6,"x",".",".",".",".","x",".","|",".",6,"x",".",8,6,"x",5,".",5,"x",".",".",".",5,".",".","|"],[".",5,5,".",".",".",5,".",".",".",".",".",".",".","|",".",7,".",".",".",".",".",".",".",4,".",".",".",".",3,".",".","|"],[".",".",".",".",".",".",".",".",".",".",".",".",".",".","|",5,".",".",7,".",".",".",".",".",5,".",".",".",".",5,".",".","|"],[0,".",".",".",4,5,".",".",4,".",".",".",".",".","|",".",".",".",".",".",".",".",".",3,".",".",2,"/",3,".",3,".","|"],[".",".",7,8,".",".",".",".",".",".",".",".",".",".","|",".",".",".",".",".",".",".",".",".",".",".",".",".",".",".",".",0,"|"]],[[".",5,3,1,0,".",".",".",0,1,"/",5,4,"|",".",4,".",1,"/",0,".",".",".",".",".",".",".",".","|"],[".",".",".",".",".",".",3,"x",3,".",".","x",".","|",".",0,".",".",".",".",3,1,"x",".",".",".",".",".","|"],[".",".",".",".",".",".",0,".",0,".",".",".",".","|",".",1,".",".",".",".",".",0,".",".",".",".",6,".","|"],[".",".",".",".",".",".",3,".",".",".",".",".",".","|",".",".",".",".",".",".",".",2,".",".",".",".",5,".","|"],[".",".",".",".",0,1,".",".",1,".",".",".",".","|",".",".",".",".",".",".",".",0,".",".",".",".",".",".","|"],[1,".",3,4,".",".",".",".",".",".",".",".",".","|",0,".",2,3,".",".",4,".",".",4,"/",5,".",5,"|"]],[[".",5,".",5,".",".",".",".",".",".",".",8,"/",7,"|",12,10,"/",9,"/",8,"/",7,8,9,7,".",".",".",".",".",12,"|"],[".",".","x",6,".",".",".",".",".","x",".",".",".",".","|",".",".",".",".",".",".",".",".",".",".",".",8,".",".",".",".",".","|"],[7,".",".",7,".",".",".",".",4,".",4,".",".",".","|",".",".",".",".",".",".",".",".",".",".",".",".",9,8,7,6,".","|"],[".",".",".",".",".",".",".",".",5,".",5,".",".",".","|",".",".",".",".",".",".",".",".",".",".",".",".",".",".",".",".",".","|"],[5,".",".",5,".",".",".",".",".",".",".",".",".",".","|",".",".",".",".",".",".",".",".",".",".",".",".",".",".",".",".",".","|"],[".",".",".",".",5,"/",4,3,".",".",3,".",".",".","|",".",".",".",".",".",".",".",".",".",".",".",".",".",".",".",".",".","|"]],[[12,".",".",".",".",".",".",".",".",".",".",8,"/",7,8,"|",".",8,".",".",".",8,".",".",".",8,".",8,".",".",12,"|"],[".",10,"x",10,"/",13,"x",".",0,"x",0,".",".",".",".","|",".",".",".",".",".",".",".",".",".",".","x",".",".","x",".","|"],[".",10,".",10,"/",13,".",".",0,".",0,".",".",".",".","|",".",7,".",".",".",7,".",".",".",7,".",7,7,".",".","|"],[".",".",".",0,".",".",".",".",".",".",".",".",".",".",".","|",".",".",".",".",".",".",".",".",".",".",".",".",".",".",".","|"],[".",".",".",".",".",".",".",".",".",".",".",".",".",".",".","|",".",".",".",".",".",".",".",".",".",".",".",".",".",".",".","|"],[0,".",".",".",".",".",".",3,".",".",3,".",".",".",".","|",8,".",8,0,7,".",7,0,6,".",".",6,".",".",".","|"]],[[12,".",".",".",".",".",".",".",".",".",".",8,"/",7,8,"|",".",8,".",8,".",".",8,"|"],[".",10,"x",10,"/",13,"x",".",0,"x",0,".",".",".",".","|",".",6,"x",6,".","x",5,"|"],[".",10,".",10,"/",13,".",".",0,".",0,".",".",".",".","|",".",7,".",7,7,".",7,"|"],[".",".",".",0,".",".",".",".",".",".",".",".",".",".",".","|",".",".",".",".",".",".",".","|"],[".",".",".",".",".",".",".",".",".",".",".",".",".",".",".","|",".",".",".",".",".",".",".","|"],[0,".",".",".",".",".",".",3,".",".",3,".",".",".",".","|",8,".",".",8,".",".",8,"|"]]],"numberofstrings":6,"notes":["E","B","G","D","A","E","B"],"capo":0,"stringnotes":["E4","B3","G3","D3","A2","E2"],"comments":["","","","","","","","","",""],"timing":[[null,"W","W","W","W","W","W","W","W","W","W","W","W","W","W","W",null,"W","W",null,"W","W",null,"W","W","W","W","W",null,"W"],[null,"W","W",null,"W",null,"W","W",null,"W","W","W",null,"W","W","W","W",null,"W","W","W",null,"W","W","W",null,"W","W","W","W","W","W","W","W","W"],[null,"W","W",null,"W","W","W",null,"W","W","W",null,"W","W",null,"W","W",null,"W","W",null,"W",null,"W","W",null,"W","W","W",null,"W",null,"W","W","W"],[null,"W",null,"W","W","W",null,"W","W",null,"W","W",null,"W","W",null,"W","W","W","W","W","W","W","W","W","W",null,"W","W"],[null,"W",null,"W",null,"W","W",null,"W","W","W","W",null,"W","W","W","W",null,"W",null,"W","W",null,"W",null,"W",null,"W",null,"W"],[null,"W","W","W","W","W","W","W",null,"W",null,"W","W",null,null,"W","W","W",null,"W","W","W",null,"W","W","W",null,"W",null,"W","W","W","W"],[null,"W","W","W","W","W","W","W",null,"W","W",null,"W","W",null,"W","W","W","W",null,"W","W","W",null,"W",null,"W","W","W"],[null,"W","W",null,"W","W",null,"W","W","W",null,"W","W",null,"W",null,"W","W",null,"W",null,"W",null,"W","W","W","W","W","W","W","W","W","W"],[null,"W","W",null,"W",null,"W",null,"W","W",null,"W","W",null,"W","W",null,"W","W","W","W","W","W","W","W","W",null,"W","W","W"],[null,"W","W",null,"W",null,"W",null,"W","W",null,"W","W",null,"W","W",null,null,"W",null,"W","W",null,"W"]],"timingvisible":false,"tabcounter":24,"stave":9,"totalstaves":10,"instrument":"6guitar","selectedtuning":"6_standard","version":"13"}

Member for

4 months 3 weeks
Submitted by yidicaj790@rmo… on Sun, 2021-02-21 17:05