Can't Help Falling in Love

Chords

01234567891011121314151617181920212223
E
B
G
D
A
E
B
0 1 2 3 4 5 6 7 8 9 10 11 12 13 14 15 16 17 18 19 20 21 22 23
(/) Slide Up  (\) Slide Down  (h) Hammer On  (p) Pull Off  (b) Bend (r) Release (v) Vibrato

Main

E|--------------5-----------|--------------------------|--0/2--3--------2-----3/2/0-----|--0----------------------|--
B|--3--------x--------3--x--|--0--------x--------0--x--|----------0--x---------------3--|--------3--x--3-----2----|--
G|--2-----2-----------3-----|--0-----0-----------0-----|----------0---------------------|--------0-----0-----0--2/|--
D|--------------------------|--------------------------|--------------------------------|--------2-----2-----2----|--
A|--------------------------|--------------------------|-------------------2------------|-----0-----------0--0----|--
D|-----0-----------4--------|-----5--------4--2--------|-------2------------------------|-------------------------|--



E|-----------------------0-----|-----------------0--2--3--|--2-----------0--------|-----------0-------|--
B|-----0--x-----------------3--|-----3--x--------0--------|-----3--x-----------x--|--3-----x-----3----|--
G|--4--------4-----6-----------|-----2-----2-----0--------|-----0-----------------|--2--2--------2--2/|--
D|--5--------------7-----------|-----0--------------------|-----------------7-----|-------------------|--
A|--------------------1--------|--2-----------2-----------|-----------------------|-------------------|--
D|--5-----------5--7-----------|-----------------2--------|--4--------6--7--------|--0-----------0----|--



E|--------------0-----|--------0--2--3--|--2-----------0--------|---------------0--------|--
B|-----0-----------3--|-----3--0--------|-----3--x-----------x--|---------3--x--------3--|--
G|--4-----6-----------|-----2--0--------|-----0-----------------|---------2-----------2--|--
D|--5-----7-----------|-----0-----------|-----------------7-----|--12h12-----------------|--
A|-----------1--------|--2--------------|-----------------------|------------------------|--
D|--5-----7-----------|--------2--------|--4--------6--7--------|------------------0--0--|--

Middle

E|-----2-----5/9--7/9--7-----------|-----2-----5/9--7--------------|-----2-----5/9--7/9--7-----7-----|--5--------5-----5--0-----5--|--
B|--2-----x------------6--x--6-----|--2-----x----------6--x--6-----|--2-----x------------6--x--6-----|-----2--x--------2--2--x--2--|--
G|--2------------------------6-----|--2----------------6-----6-----|--2------------------------------|-----2-----------2--2-----2--|--
D|---------------------------------|-------------------------------|---------------------------------|-----------------------------|--
A|----------------8-------------8--|----------------8-----------8--|----------------8-------------8--|-----------------------------|--
D|--4------------------------------|--4----------------------------|--4------------------------------|--4-----------4--4-----------|--



E|--3--------3--------------------|--
B|-----0--x--------2--3--x--5-----|--
G|-----0-----------0--0-----0-----|--
D|-----------------2--3-----5-----|--
A|-----------------1-----------0--|--
D|--2-----------2-----------------|--



E|-----------5-----------|--------------------------|--0/2--3--------2-----3/2/0-----|--0----------------------|--
B|--3-----x--------3--x--|--0--------x--------0--x--|----------0--x---------------3--|--------3--x--3-----2----|--
G|--2--2-----------3-----|--0-----0-----------0-----|----------0---------------------|--------0-----0-----0--2/|--
D|-----------------------|--------------------------|--------------------------------|--------2-----2-----2----|--
A|-----------------------|--------------------------|-------------------2------------|-----0-----------0--0----|--
D|--0-----------4--------|-----5--------4--2--------|-------2------------------------|-------------------------|--



E|-----------------------0-----|-----------------0--2--3--|--2-----------0--------|-----------0-------|--
B|-----0--x-----------------3--|-----3--x--------0--------|-----3--x-----------x--|--3-----x-----3----|--
G|--4--------4-----6-----------|-----2-----2-----0--------|-----0-----------------|--2--2--------2--2/|--
D|--5--------------7-----------|-----0--------------------|-----------------7-----|-------------------|--
A|--------------------1--------|--2-----------2-----------|-----------------------|-------------------|--
D|--5-----------5--7-----------|-----------------2--------|--4--------6--7--------|--0-----------0----|--



E|--------------0-----|--------0--2--3--|--2-----------0--------|------------------0--------------------|--
B|-----0-----------3--|-----3--0--------|-----3--x-----------x--|------------3--x--------2--3--x--5-----|--
G|--4-----6-----------|-----2--0--------|-----0-----------------|------------2-----------0--0-----0-----|--
D|--5-----7-----------|-----0-----------|-----------------7-----|--12h12-----------------2--3-----5-----|--
A|-----------1--------|--2--------------|-----------------------|------------------------1-----------0--|--
D|--5-----7-----------|--------2--------|--4--------6--7--------|---------0-----------0-----------------|--



E|-----------0--------|-----------0--------------|------------------0-----0--|--
B|--3-----x--------3--|--8-----x--------7--5--x--|------------3--x--------3--|--
G|--2--0-----------2--|--7--------------6--4-----|------------2-----------2--|--
D|--------------------|--8--8-----------7--5-----|--12h12-----------------0--|--
A|--------------------|--------------------------|------------------------0--|--
D|--0-----------0--0--|--8-----------8--7--5-----|---------0-----------0--0--|--

							http://www.guitartabcreator.com
Instruments
{"strings":[[[".",".",".","_",5,".",".","_","|",".",".",".","_",".",".",".","_","|",0,"/",2,3,".",".",2,".",3,"/",2,"/",0,".","|",0,".",".",".",".",".",".",".",".","|"],[3,".",".","x",".",".",3,"x","|",0,".",".","x",".",".",0,"x","|",".",".",".",".",0,"x",".",".",".",".",".",".",".",3,"|",".",".",3,"x",3,".",2,".",".","|"],[2,".",2,"_",".",".",3,"_","|",0,".",0,"_",".",".",0,"_","|",".",".",".",".",0,".",".",".",".",".",".",".",".",".","|",".",".",0,".",0,".",0,2,"/","|"],[".",".",".","_",".",".",".","_","|",".",".",".","_",".",".",".","_","|",".",".",".",".",".",".",".",".",".",".",".",".",".",".","|",".",".",2,".",2,".",2,".",".","|"],[".",".",".","_",".",".",".","_","|",".",".",".","_",".",".",".","_","|",".",".",".",".",".",".",".",2,".",".",".",".",".",".","|",".",0,".",".",".",0,0,".",".","|"],[".",0,".","_",".",4,".","_","|",".",5,".","_",4,2,".","_","|",".",".",".",2,".",".",".",".",".",".",".",".",".",".","|",".",".",".",".",".",".",".",".",".","|"]],[[".",".","_",".",".",".",".",0,".","|",".",".","_",".",".",0,2,3,"|",2,".",".",".",0,".",".","|",".",".",".",0,".",".",".","|"],[".",0,"x",".",".",".",".",".",3,"|",".",3,"x",".",".",0,".",".","|",".",3,"x",".",".",".","x","|",3,".","x",".",3,".",".","|"],[4,".","_",4,".",6,".",".",".","|",".",2,"_",2,".",0,".",".","|",".",0,".",".",".",".",".","|",2,2,".",".",2,2,"/","|"],[5,".","_",".",".",7,".",".",".","|",".",0,"_",".",".",".",".",".","|",".",".",".",".",".",7,".","|",".",".",".",".",".",".",".","|"],[".",".","_",".",".",".",1,".",".","|",2,".","_",".",2,".",".",".","|",".",".",".",".",".",".",".","|",".",".",".",".",".",".",".","|"],[5,".","_",".",5,7,".",".",".","|",".",".","_",".",".",2,".",".","|",4,".",".",6,7,".",".","|",0,".",".",".",0,".",".","|"]],[[".",".",".",".",0,".","|",".",".",0,2,3,"|",2,".",".",".",0,".",".","|",".",".",".",".",".",0,".",".","|"],[".",0,".",".",".",3,"|",".",3,0,".",".","|",".",3,"x",".",".",".","x","|",".",".",".",3,"x",".",".",3,"|"],[4,".",6,".",".",".","|",".",2,0,".",".","|",".",0,".",".",".",".",".","|",".",".",".",2,".",".",".",2,"|"],[5,".",7,".",".",".","|",".",0,".",".",".","|",".",".",".",".",".",7,".","|",12,"h",12,".",".",".",".",".","|"],[".",".",".",1,".",".","|",2,".",".",".",".","|",".",".",".",".",".",".",".","|",".",".",".",".",".",".",".",".","|"],[5,".",7,".",".",".","|",".",".",2,".",".","|",4,".",".",6,7,".",".","|",".",".",".",".",".",".",0,0,"|"]],[[".",2,"_",5,"/",9,7,"/",9,7,"_",".",".","|",".",2,"_",5,"/",9,7,".","_",".",".","|",".",2,".",5,"/",9,7,"/",9,7,".",7,".","|",5,".",".",5,".",5,0,".",5,"|"],[2,".","x",".",".",".",".",".",".",6,"x",6,".","|",2,".","x",".",".",".",".",6,"x",6,".","|",2,".","x",".",".",".",".",".",".",6,"x",6,".","|",".",2,"x",".",".",2,2,"x",2,"|"],[2,".","_",".",".",".",".",".",".",".","_",6,".","|",2,".","_",".",".",".",".",6,"_",6,".","|",2,".",".",".",".",".",".",".",".",".",".",".",".","|",".",2,".",".",".",2,2,".",2,"|"],[".",".","_",".",".",".",".",".",".",".","_",".",".","|",".",".","_",".",".",".",".",".","_",".",".","|",".",".",".",".",".",".",".",".",".",".",".",".",".","|",".",".",".",".",".",".",".",".",".","|"],[".",".","_",".",".",".",8,".",".",".","_",".",8,"|",".",".","_",".",".",".",8,".","_",".",8,"|",".",".",".",".",".",".",8,".",".",".",".",".",8,"|",".",".",".",".",".",".",".",".",".","|"],[4,".","_",".",".",".",".",".",".",".","_",".",".","|",4,".","_",".",".",".",".",".","_",".",".","|",4,".",".",".",".",".",".",".",".",".",".",".",".","|",4,".",".",".",4,4,".",".",".","|"]],[[3,".",".",3,".",".",".",".",".",".","|"],[".",0,"x",".",".",2,3,"x",5,".","|"],[".",0,".",".",".",0,0,".",0,".","|"],[".",".",".",".",".",2,3,".",5,".","|"],[".",".",".",".",".",1,".",".",".",0,"|"],[2,".",".",".",2,".",".",".",".",".","|"]],[[".",".",".",5,".",".",".","|",".",".",".",".",".",".",".",".","|",0,"/",2,3,".",".",2,".",3,"/",2,"/",0,".","|",0,".",".",".",".",".",".",".",".","|"],[3,".","x",".",".",3,"x","|",0,".",".","x",".",".",0,"x","|",".",".",".",".",0,"x",".",".",".",".",".",".",".",3,"|",".",".",3,"x",3,".",2,".",".","|"],[2,2,".",".",".",3,".","|",0,".",0,".",".",".",0,".","|",".",".",".",".",0,".",".",".",".",".",".",".",".",".","|",".",".",0,".",0,".",0,2,"/","|"],[".",".",".",".",".",".",".","|",".",".",".",".",".",".",".",".","|",".",".",".",".",".",".",".",".",".",".",".",".",".",".","|",".",".",2,".",2,".",2,".",".","|"],[".",".",".",".",".",".",".","|",".",".",".",".",".",".",".",".","|",".",".",".",".",".",".",".",2,".",".",".",".",".",".","|",".",0,".",".",".",0,0,".",".","|"],[0,".",".",".",4,".",".","|",".",5,".",".",4,2,".",".","|",".",".",".",2,".",".",".",".",".",".",".",".",".",".","|",".",".",".",".",".",".",".",".",".","|"]],[[".",".",".",".",".",".",".",0,".","|",".",".",".",".",".",0,2,3,"|",2,".",".",".",0,".",".","|",".",".",".",0,".",".",".","|"],[".",0,"x",".",".",".",".",".",3,"|",".",3,"x",".",".",0,".",".","|",".",3,"x",".",".",".","x","|",3,".","x",".",3,".",".","|"],[4,".",".",4,".",6,".",".",".","|",".",2,".",2,".",0,".",".","|",".",0,".",".",".",".",".","|",2,2,".",".",2,2,"/","|"],[5,".",".",".",".",7,".",".",".","|",".",0,".",".",".",".",".",".","|",".",".",".",".",".",7,".","|",".",".",".",".",".",".",".","|"],[".",".",".",".",".",".",1,".",".","|",2,".",".",".",2,".",".",".","|",".",".",".",".",".",".",".","|",".",".",".",".",".",".",".","|"],[5,".",".",".",5,7,".",".",".","|",".",".",".",".",".",2,".",".","|",4,".",".",6,7,".",".","|",0,".",".",".",0,".",".","|"]],[[".",".",".",".",0,".","|",".",".",0,2,3,"|",2,".",".",".",0,".",".","|",".",".",".",".",".",".",0,".",".",".",".",".",".","|"],[".",0,".",".",".",3,"|",".",3,0,".",".","|",".",3,"x",".",".",".","x","|",".",".",".",".",3,"x",".",".",2,3,"x",5,".","|"],[4,".",6,".",".",".","|",".",2,0,".",".","|",".",0,".",".",".",".",".","|",".",".",".",".",2,".",".",".",0,0,".",0,".","|"],[5,".",7,".",".",".","|",".",0,".",".",".","|",".",".",".",".",".",7,".","|",12,"h",12,".",".",".",".",".",2,3,".",5,".","|"],[".",".",".",1,".",".","|",2,".",".",".",".","|",".",".",".",".",".",".",".","|",".",".",".",".",".",".",".",".",1,".",".",".",0,"|"],[5,".",7,".",".",".","|",".",".",2,".",".","|",4,".",".",6,7,".",".","|",".",".",".",0,".",".",".",0,".",".",".",".",".","|"]],[[".",".",".",0,".",".","|",".",".",".",0,".",".",".",".","|",".",".",".",".",".",".",0,".",0,"|"],[3,".","x",".",".",3,"|",8,".","x",".",".",7,5,"x","|",".",".",".",".",3,"x",".",".",3,"|"],[2,0,".",".",".",2,"|",7,".",".",".",".",6,4,".","|",".",".",".",".",2,".",".",".",2,"|"],[".",".",".",".",".",".","|",8,8,".",".",".",7,5,".","|",12,"h",12,".",".",".",".",".",0,"|"],[".",".",".",".",".",".","|",".",".",".",".",".",".",".",".","|",".",".",".",".",".",".",".",".",0,"|"],[0,".",".",".",0,0,"|",8,".",".",".",8,7,5,".","|",".",".",".",0,".",".",".",0,0,"|"]]],"numberofstrings":6,"notes":["E","B","G","D","A","D"],"capo":0,"stringnotes":["E3","B2","G2","D2","A1","D1"],"comments":["Main","","","Middle","","","","","","Main","","","","","","","Final","Stave 18:","Stave 19:","Stave 20:","Stave 21:","Stave 22:"],"timing":[["W","W","W",null,"W","W","W","W",null,"W","W","W",null,"W","W","W",null,null,null,"W",null,"W","W","W",null,"W","W","W",null,"W",null,"W","W",null,"W","W","W",null,"W","W","W","W"],["W",null,"W","W","W",null,"W","W","W",null,"W",null,"W","W",null,"W","W","W","W","W","W","W","W","W","W","W",null,null,"W","W",null,"W","W","W"],["W","W",null,"W","W","W","W","W","W",null,"W","W",null,"W","W","W","W","W","W","W",null,null,"W",null,"W","W",null,"W","W","W"],["W","W",null,"W","W","W",null,null,"W","W",null,"W","W","W",null,null,null,null,null,null,null,null,null,null,null,null,null,"W","W",null,"W",null,"W","W",null,"W","W",null,"W","W","W","W","W",null,"W","W","W","W",null,"W"],["W","W","W","W","W","W",null,"W","W","W",null,"W","W"],["W","W",null,"W","W","W",null,null,"W","W","W","W","W",null,"W","W","W",null,"W",null,"W","W","W",null,"W","W","W",null,"W",null,"W","W",null,"W","W","W",null,"W","W","W","W"],["W","W",null,"W",null,"W","W",null,"W","W","W","W","W",null,"W","W",null,"W",null,"W","W","W",null,"W","W","W",null,null,"W","W",null,"W","W","W"],["W","W",null,"W",null,"W","W",null,"W","W",null,"W","W",null,"W","W","W","W","W","W","W","W","W","W","W","W","W",null,"W","W","W","W",null,"W","W"],[null,"W","W",null,"W","W","W","W",null,"W","W"],[null,"W","W",null,"W","W","W",null,null,"W","W","W",null,"W","W","W"],["W","W","W","W","W",null,"W","W","W","W","W","W","W","W","W","W",null,"W","W","W","W","W","W","W","W","W"],[null,"W","W",null,"W","W","W","W","W",null,null,"W","W",null,"W","W","W","W","W"],[null,"W","W",null,"W","W","W",null,null,"W","W",null,"W","W",null,"W"],[null,"W","W","W","W","W","W","W","W","W","W","W","W"],[null,"W","W",null,"W","W","W",null,null,"W",null,"W","W","W",null,"W","W","W","W",null,"W","W"],[null,"W","W",null,"W","W","W",null,null,null,null,null,null,null,null,null,null,null,null,"W"],[null,"W","W",null,"W","W","W","W",null,null,null,"W","W","W","W",null,"W","W","W"],[],[],[],[],[]],"timingvisible":false,"tabcounter":0,"totalstaves":9,"instrument":"6guitar","selectedtuning":"Drop D","version":"13"}

Member for

1 month
Submitted by yidicaj790@rmo… on Wed, 2020-09-30 17:46