Sound will begin in 5 seconds

Usher - Something Special

Chords
01234567891011121314151617181920212223
E
B
G
D
A
E
B
0 1 2 3 4 5 6 7 8 9 10 11 12 13 14 15 16 17 18 19 20 21 22 23
Song Science #1: How Pros Use 6 Chords to Write Hit Songs
(/) Slide Up  (\) Slide Down  (h) Hammer On  (p) Pull Off  (b) Bend (r) Release (v) Vibrato

Stave 1:

E|---------------------------------------------------------------------------------------
B|--10-----------10-----------9--------------------------2--3--5-----7--7----7-----------
G|--9------------10-----------7--------------------------2--2--4-----6--6----7-----------
D|--10-----------10-----------9--------------------------2--0--0-----7--7----7-----------
A|--8-------------------------7--------------------------0--2--4--5-----5/7--7-----------
E|---------------10-----------------------0----------------------------------------------

Stave 2:

E|---------------------------------
B|--2--3--5--7-----6-----5-----10--
G|--2--2--4--6-----5-----4-----9---
D|--2--0--0--7-----7-----6-----11--
A|--0--2--4--5-----5-----4-----9---
E|---------------------------------

http://www.guitartabcreator.com
Guitar Tab Creator is intended to store guitar tab created through the tool. It currently does not support in-line text editing. Any text you place in here will be lost. If you need to comment on your tab, please use the "Tab Notes" section located below.