Sound will begin in 5 seconds

J. S. Bach - BWV 1001 - Violin Sonata No. 1 in Gm - IV. Presto

Chords
01234567891011121314151617181920212223
E
B
G
D
A
E
B
0 1 2 3 4 5 6 7 8 9 10 11 12 13 14 15 16 17 18 19 20 21 22 23
Song Science #1: How Pros Use 6 Chords to Write Hit Songs
(/) Slide Up  (\) Slide Down  (h) Hammer On  (p) Pull Off  (b) Bend (r) Release (v) Vibrato

Stave 1:

E|-----6--------------------------------------------------------------------3--------------------------
B|--8-----8-----8--------------------------------------------------------3-----3-----------------------
G|-----------7-----7-----7--------3--------0-----------------------0--3-----------5--3--2-----------2--
D|--------------------8-----8--5-----5--0-----0-----0-----------0--------------------------4--0--4-----
A|-----------------------------------------------1-----1-----1--------------------------------5--------
E|--------------------------------------------------------3--------------------------------------------

Stave 2:

E|-----2--5--------------------------------3--6--3-----------3--5-----------------3--------------------3--
B|--3--------4--3-----------------------3-----------4-----4--------6-----------6-----4-----------4--------
G|-----------------5--3--2--0-----0--3-----------------5--------------7-----7-----------5--2--5-----------
D|-----------------------------0-----------------------------------------8--------------------------0-----
A|--------------------------------------------------------------------------------------------------------
E|--------------------------------------------------------------------------------------------------------

Stave 3:

E|--2--3--5--
B|-----------
G|-----------
D|-----------
A|-----------
E|-----------

http://www.guitartabcreator.com
Guitar Tab Creator is intended to store guitar tab created through the tool. It currently does not support in-line text editing. Any text you place in here will be lost. If you need to comment on your tab, please use the "Tab Notes" section located below.