Thinkin Bout You

Chords
01234567891011121314151617181920212223
E
B
G
D
A
E
B
0 1 2 3 4 5 6 7 8 9 10 11 12 13 14 15 16 17 18 19 20 21 22 23
(/) Slide Up  (\) Slide Down  (h) Hammer On  (p) Pull Off  (b) Bend (r) Release (v) Vibrato

Stave 1:

E|----------------------------------------------------------------------------------------------
B|-------8/10--8--------------------8--6--5----------8--6--5----------8--6--5----------------8--
G|--5h7-----------10--9--7--5h7--------------7--5h7-----------7--5h7-----------7--7h9p7---------
D|---------------------------------------------------------------------------------------10-----
A|----------------------------------------------------------------------------------------------
E|----------------------------------------------------------------------------------------------

Stave 2:

E|--------------------------------------------------------------------------------
B|--8h10--8---------------8--6--5-------------6h8--6--5\3--6--6--5----------------
G|-----------10--9--7--5-----------7--7h9--5------------------------7--7h9--7--5--
D|--------------------------------------------------------------------------------
A|--------------------------------------------------------------------------------
E|--------------------------------------------------------------------------------

Stave 3:

E|---------------------------------------------------------------------------------------------------------------------
B|-------8/10--8----------------------------8/10--8--------------8--6--5\1-------8/10--8-------------------------------
G|--5h7-----------10--9--7h9--7--5--5--5h7-----------10--9--7h9-------------5h7-----------10--9--7h9--7--5--7-----7h9--
D|-------------------------------------------------------------------------------------------------------------5-------
A|---------------------------------------------------------------------------------------------------------------------
E|---------------------------------------------------------------------------------------------------------------------

Stave 4:

E|------------------------------------------------------------------------------
B|-------------13--15b13----------13------15--17--15--13---------13--13/15--13--
G|--12--12h14-------------12--12------12------------------12h14-----------------
D|------------------------------------------------------------------------------
A|------------------------------------------------------------------------------
E|------------------------------------------------------------------------------

Stave 5:

E|-------------------------------------------------------------------------
B|-------------13--15b15--13------15--17--15--13---------13h15--13h15--13--
G|--12--12h14-----------------12------------------14p12--------------------
D|-------------------------------------------------------------------------
A|-------------------------------------------------------------------------
E|-------------------------------------------------------------------------

							http://www.guitartabcreator.com
Tab Notes
* Times 2 ang unang 8 sa 8-6-5 (magiging 8-8-6-5)
Instruments
{"strings":[[[".",".",".",".",".",".",".",".",".",".",".",".",".",".",".",".",".",".",".",".",".",".",".",".",".",".",".",".",".",".",".",".",".",".",".",".",".",".","."],[".",".",".",8,"/",10,8,".",".",".",".",".",".",".",8,6,5,".",".",".",".",8,6,5,".",".",".",".",8,6,5,".",".",".",".",".",".",".",8],[5,"h",7,".",".",".",".",10,9,7,5,"h",7,".",".",".",".",7,5,"h",7,".",".",".",7,5,"h",7,".",".",".",7,7,"h",9,"p",7,".","."],[".",".",".",".",".",".",".",".",".",".",".",".",".",".",".",".",".",".",".",".",".",".",".",".",".",".",".",".",".",".",".",".",".",".",".",".",".",10,"."],[".",".",".",".",".",".",".",".",".",".",".",".",".",".",".",".",".",".",".",".",".",".",".",".",".",".",".",".",".",".",".",".",".",".",".",".",".",".","."],[".",".",".",".",".",".",".",".",".",".",".",".",".",".",".",".",".",".",".",".",".",".",".",".",".",".",".",".",".",".",".",".",".",".",".",".",".",".","."]],[[".",".",".",".",".",".",".",".",".",".",".",".",".",".",".",".",".",".",".",".",".",".",".",".",".",".",".",".",".",".",".","."],[8,"h",10,8,".",".",".",".",8,6,5,".",".",".",".",".",6,"h",8,6,5,"\\",3,6,6,5,".",".",".",".",".","."],[".",".",".",".",10,9,7,5,".",".",".",7,7,"h",9,5,".",".",".",".",".",".",".",".",".",".",7,7,"h",9,7,5],[".",".",".",".",".",".",".",".",".",".",".",".",".",".",".",".",".",".",".",".",".",".",".",".",".",".",".",".",".",".",".","."],[".",".",".",".",".",".",".",".",".",".",".",".",".",".",".",".",".",".",".",".",".",".",".",".",".",".",".",".",".",".",".","."],[".",".",".",".",".",".",".",".",".",".",".",".",".",".",".",".",".",".",".",".",".",".",".",".",".",".",".",".",".",".",".","."]],[[".",".",".",".",".",".",".",".",".",".",".",".",".",".",".",".",".",".",".",".",".",".",".",".",".",".",".",".",".",".",".",".",".",".",".",".",".",".",".",".",".",".",".",".",".",".",".",".",".",".","."],[".",".",".",8,"/",10,8,".",".",".",".",".",".",".",".",".",".",".",8,"/",10,8,".",".",".",".",".",8,6,5,"\\",1,".",".",".",8,"/",10,8,".",".",".",".",".",".",".",".",".",".",".","."],[5,"h",7,".",".",".",".",10,9,7,"h",9,7,5,5,5,"h",7,".",".",".",".",10,9,7,"h",9,".",".",".",".",".",5,"h",7,".",".",".",".",10,9,7,"h",9,7,5,7,".",7,"h",9],[".",".",".",".",".",".",".",".",".",".",".",".",".",".",".",".",".",".",".",".",".",".",".",".",".",".",".",".",".",".",".",".",".",".",".",".",".",".",".",".",".",".",".",".",".",".",".",5,".",".","."],[".",".",".",".",".",".",".",".",".",".",".",".",".",".",".",".",".",".",".",".",".",".",".",".",".",".",".",".",".",".",".",".",".",".",".",".",".",".",".",".",".",".",".",".",".",".",".",".",".",".","."],[".",".",".",".",".",".",".",".",".",".",".",".",".",".",".",".",".",".",".",".",".",".",".",".",".",".",".",".",".",".",".",".",".",".",".",".",".",".",".",".",".",".",".",".",".",".",".",".",".",".","."]],[[".",".",".",".",".",".",".",".",".",".",".",".",".",".",".",".",".",".",".",".",".",".",".","."],[".",".",".",".",13,15,"b",13,".",".",13,".",15,17,15,13,".",".",".",13,13,"/",15,13],[12,12,"h",14,".",".",".",".",12,12,".",12,".",".",".",".",12,"h",14,".",".",".",".","."],[".",".",".",".",".",".",".",".",".",".",".",".",".",".",".",".",".",".",".",".",".",".",".","."],[".",".",".",".",".",".",".",".",".",".",".",".",".",".",".",".",".",".",".",".",".",".",".","."],[".",".",".",".",".",".",".",".",".",".",".",".",".",".",".",".",".",".",".",".",".",".",".","."]],[[".",".",".",".",".",".",".",".",".",".",".",".",".",".",".",".",".",".",".",".",".",".",".","."],[".",".",".",".",13,15,"b",15,13,".",15,17,15,13,".",".",".",13,"h",15,13,"h",15,13],[12,12,"h",14,".",".",".",".",".",12,".",".",".",".",14,"p",12,".",".",".",".",".",".","."],[".",".",".",".",".",".",".",".",".",".",".",".",".",".",".",".",".",".",".",".",".",".",".","."],[".",".",".",".",".",".",".",".",".",".",".",".",".",".",".",".",".",".",".",".",".",".",".","."],[".",".",".",".",".",".",".",".",".",".",".",".",".",".",".",".",".",".",".",".",".",".",".","."]]],"numberofstrings":6,"notes":["E","B","G","D","A","E","B"],"capo":0,"stringnotes":["E4","B3","G3","D3","A2","E2"],"comments":["Stave 1:","Stave 2:","Stave 3:","Stave 4:","Stave 5:"],"timing":[["W",null,"W","W",null,"W","W","W","W","W","W",null,"W","W","W","W","W","W",null,"W","W","W","W","W","W",null,"W","W","W","W","W","W",null,"W",null,"W","W","W",null,"W"],["W","W","W","W","W","W","W","W","W","W","W","W","W",null,"W","W","W","W","W","W","W","W","W","W","W","W","W","W",null,"W","W","W"],["W",null,"W","W",null,"W","W","W","W","W",null,"W","W","W","W","W",null,"W","W",null,"W","W","W","W","W",null,"W","W","W","W",null,"W","W",null,"W","W",null,"W","W","W","W","W",null,"W","W","W","W","W","W",null,"W"],["W","W",null,"W","W","W",null,"W","W","W","W","W","W","W","W","W","W",null,"W","W","W",null,"W","W"],["W","W",null,"W","W","W",null,"W","W","W","W","W","W","W","W",null,"W","W",null,"W","W",null,"W","W"]],"timingvisible":false,"tabcounter":24,"stave":4,"totalstaves":5,"instrument":"6guitar","selectedtuning":"6_standard","version":"13"}

Member for

5 days 9 hours
Submitted by yawni on Sat, 2020-05-23 07:08