Sound will begin in 5 seconds

JeSais

Chords
01234567891011121314151617181920212223
E
B
G
D
A
E
B
0 1 2 3 4 5 6 7 8 9 10 11 12 13 14 15 16 17 18 19 20 21 22 23
Song Science #1: How Pros Use 6 Chords to Write Hit Songs
(/) Slide Up  (\) Slide Down  (h) Hammer On  (p) Pull Off  (b) Bend (r) Release (v) Vibrato

Stave 1:

E|-----------------------------------------------------------------
B|-----------------------------------3--------------3--------------
G|--------------------------------------2-----5--------2--------0--
D|-----3--------------3-----------0--------0-----0--------0--0-----
A|--------3-----0--------3-----0-----------------------------------
E|--1--------1-----1--------1--------------------------------------

Stave 2:

E|-----------------------------------------------
B|-----------------------------------------------
G|-----5--------5-----5--------5-----3--------3--
D|--------5--------------5--------------3--------
A|--3--------3-----3--------3-----1--------1-----
E|-----------------------------------------------

Stave 3:

E|--------------------------------
B|-----1--6--------1--6-----6-----
G|--2--2--7--7--2--2--7--7--7--4--
D|--3--2--7--8--3--2--7--8--7--5--
A|--3--0--5--8--3--0--5--8--5--5--
E|--1--------6--1--------6-----3--

Stave 4:

E|--------------
B|--------------
G|--7--4--7--4--
D|--8--5--8--5--
A|--8--5--8--5--
E|--6--3--6--3--

http://www.guitartabcreator.com
Guitar Tab Creator is intended to store guitar tab created through the tool. It currently does not support in-line text editing. Any text you place in here will be lost. If you need to comment on your tab, please use the "Tab Notes" section located below.