Sound will begin in 5 seconds

Young Again Bridge Scales

01234567891011121314151617181920212223
E
B
G
D
A
E
B
0 1 2 3 4 5 6 7 8 9 10 11 12 13 14 15 16 17 18 19 20 21 22 23
Song Science #1: How Pros Use 6 Chords to Write Hit Songs
(/) Slide Up  (\) Slide Down  (h) Hammer On  (p) Pull Off  (b) Bend (r) Release (v) Vibrato

Stave 1:

E|--------------------------------------------------------------------------------------------------
B|-----5--7--8--------8--7-----7--8b---5--7--8--------8--7-----7--5b---5--7--8--------8--7-----7--8b
G|--7-----------7--9--------7-------7-----------7--9--------7-------7-----------7--9--------7-------
D|--------------------------------------------------------------------------------------------------
A|--------------------------------------------------------------------------------------------------
E|--------------------------------------------------------------------------------------------------

Stave 2:

E|--10---------------------
B|------10--8--7--7--7--8--
G|-------------------------
D|-------------------------
A|-------------------------
E|-------------------------

Stave 3:

E|---------------------------------------------------------------------------------------------------
B|---------------------------------------------------------------------------------------------------
G|---------------------------------------------------------------------------------------------------
D|--------4--5--------5--4-----4--5b------4--5--------5--4-----4-----------4--5--------5--4-----4--5b
A|--5--7--------5--7--------5-------5--7--------5--7--------5-----7--5--7--------5--7--------5-------
E|---------------------------------------------------------------------------------------------------

Stave 4:

E|-----------------------
B|-----------------------
G|--9--------------------
D|-----9--7--6--6--6--7--
A|-----------------------
E|-----------------------

Stave 5:

E|------------------------------------------------------------------------------------------
B|------17--19--20----------20--19------19--20------17--19--20----------20--19------19--17--
G|--19--------------19--21----------19----------19--------------19--21----------19----------
D|------------------------------------------------------------------------------------------
A|------------------------------------------------------------------------------------------
E|------------------------------------------------------------------------------------------

Stave 6:

E|----------------------------------------------21b22-----------------------------
B|------17--19--20----------20--19------19--20---------21b22--22--19--19--19--20--
G|--19--------------19--21----------19--------------------------------------------
D|--------------------------------------------------------------------------------
A|--------------------------------------------------------------------------------
E|--------------------------------------------------------------------------------

http://www.guitartabcreator.com
Guitar Tab Creator is intended to store guitar tab created through the tool. It currently does not support in-line text editing. Any text you place in here will be lost. If you need to comment on your tab, please use the "Tab Notes" section located below.