Sound will begin in 5 seconds

What a beautiful Name (D)

Chords
01234567891011121314151617181920212223
E
B
G
D
A
E
B
0 1 2 3 4 5 6 7 8 9 10 11 12 13 14 15 16 17 18 19 20 21 22 23
(/) Slide Up  (\) Slide Down  (h) Hammer On  (p) Pull Off  (b) Bend (r) Release (v) Vibrato

Chorus 2

E|--10--9---10--9---7--
B|--7---10--7---10--8--
G|--7---7---7---7---7--
D|---------------------
A|---------------------
E|---------------------

Instrumental / (mit viel Reverb / Spherisch)

E|--17--17--
B|--15--14--
G|--14--14--
D|----------
A|----------
E|----------

Bridge 1&2

E|--------------------------------------------------------------
B|--15--15--15--15--14--14--10--10--10--10--10--10--8--8--7--7--
G|--------------------------------------------------------------
D|--------------------------------------------------------------
A|--------------------------------------------------------------
E|--------------------------------------------------------------

Chorus 3&4 & Bridge 3

E|--
B|--
G|--
D|--
A|--
E|--

Stave 5:

E|--
B|--
G|--
D|--
A|--
E|--

http://www.guitartabcreator.com
Guitar Tab Creator is intended to store guitar tab created through the tool. It currently does not support in-line text editing. Any text you place in here will be lost. If you need to comment on your tab, please use the "Tab Notes" section located below.