Sound will begin in 5 seconds

Treasure (G)

01234567891011121314151617181920212223
E
B
G
D
A
E
B
0 1 2 3 4 5 6 7 8 9 10 11 12 13 14 15 16 17 18 19 20 21 22 23
(/) Slide Up  (\) Slide Down  (h) Hammer On  (p) Pull Off  (b) Bend (r) Release (v) Vibrato

Prechorus

E|-----------
B|-----------
G|--------7--
D|--4--5-----
A|-----------
E|-----------

Chorus & Bridge

E|--8-----8-----7-----7-------------------7-----7-----8-----8-----7-----7-----------------------
B|-----8-----8-----8-----8--10-----10--------8-----8-----8-----8-----8-----8--10-----10-----10--
G|------------------------------7------7------------------------------------------7------7------
D|----------------------------------------------------------------------------------------------
A|----------------------------------------------------------------------------------------------
E|----------------------------------------------------------------------------------------------

http://www.guitartabcreator.com
Guitar Tab Creator is intended to store guitar tab created through the tool. It currently does not support in-line text editing. Any text you place in here will be lost. If you need to comment on your tab, please use the "Tab Notes" section located below.