Sound will begin in 5 seconds

King (Friend of mine) (B)

Chords
01234567891011121314151617181920212223
E
B
G
D
A
E
B
0 1 2 3 4 5 6 7 8 9 10 11 12 13 14 15 16 17 18 19 20 21 22 23
(/) Slide Up  (\) Slide Down  (h) Hammer On  (p) Pull Off  (b) Bend (r) Release (v) Vibrato

Verse 1&2 1. Teil

E|--------------11--12------11------11------11------11--
B|--12------12----------12------12------12------12------
G|------11----------------------------------------------
D|------------------------------------------------------
A|------------------------------------------------------
E|------------------------------------------------------

Verse 1&2 2. Teil

E|----------------------------------12------12------11------11--------------------------
B|--11------11------12------12----------12------12------12------12--14------14------14--
G|------11------11------11------11--------------------------------------11------11------
D|--------------------------------------------------------------------------------------
A|--------------------------------------------------------------------------------------
E|--------------------------------------------------------------------------------------

Chorus (Clean)

E|--12------12------11------11------11------11----------------------12------12------11------11--------------------------
B|------12------12------12------12------12------12--14------14----------12------12------12------12--14------14------14--
G|------------------------------------------------------12------12--------------------------------------12------12------
D|----------------------------------------------------------------------------------------------------------------------
A|----------------------------------------------------------------------------------------------------------------------
E|----------------------------------------------------------------------------------------------------------------------

Zwischenst├╝ck Ende Chorus

E|--------------------------------------------------------------------
B|-----------------------------7--------------------------------------
G|--6--8--6--8--6--8--6--8--8-----8--6--8--6--8--6--8--6--8--9--8--6--
D|--------------------------------------------------------------------
A|--------------------------------------------------------------------
E|--------------------------------------------------------------------

Chorus & Bridge (verzerrt)

E|----------------------------------------------
B|--12--12--12--12--11--12--14--12--14--11--11--
G|--11--11--11--11--11--11--11--11--11--11--11--
D|----------------------------------------------
A|----------------------------------------------
E|----------------------------------------------

http://www.guitartabcreator.com
Guitar Tab Creator is intended to store guitar tab created through the tool. It currently does not support in-line text editing. Any text you place in here will be lost. If you need to comment on your tab, please use the "Tab Notes" section located below.