Sound will begin in 5 seconds

Face to Face (D)

Chords
01234567891011121314151617181920212223
E
B
G
D
A
E
B
0 1 2 3 4 5 6 7 8 9 10 11 12 13 14 15 16 17 18 19 20 21 22 23
(/) Slide Up  (\) Slide Down  (h) Hammer On  (p) Pull Off  (b) Bend (r) Release (v) Vibrato

Lick (Intro & Verse)

E|---------------------------------------------------------------------
B|-----------8-----7---------------------------------8-----7-----------
G|--------7-----7-----7--9--7--9--11--9--7--------7-----7-----7--------
D|--7--9------------------------------------7--9-----------------9--7--
A|---------------------------------------------------------------------
E|---------------------------------------------------------------------

Bridge (verzerrt)

E|----------
B|--13--12--
G|--12--12--
D|----------
A|----------
E|----------

Chorus

E|--------------------------------------------------------------------------------------------------
B|--6-----6-----5-----5-----8-----8-----5-----5-----6-----6-----5-----5-----8-----8-----8-----8-----
G|-----5-----5-----5-----5-----7-----7-----5-----5-----5-----5-----5-----5-----7-----7-----7-----7--
D|--------------------------------------------------------------------------------------------------
A|--------------------------------------------------------------------------------------------------
E|--------------------------------------------------------------------------------------------------

http://www.guitartabcreator.com
Guitar Tab Creator is intended to store guitar tab created through the tool. It currently does not support in-line text editing. Any text you place in here will be lost. If you need to comment on your tab, please use the "Tab Notes" section located below.