Sound will begin in 5 seconds

Ever Glorious (C)

Chords
01234567891011121314151617181920212223
E
B
G
D
A
E
B
0 1 2 3 4 5 6 7 8 9 10 11 12 13 14 15 16 17 18 19 20 21 22 23
(/) Slide Up  (\) Slide Down  (h) Hammer On  (p) Pull Off  (b) Bend (r) Release (v) Vibrato

Intro & Verse 1+2

E|--------------------------
B|--------------------------
G|-----5-----1-----9-----4--
D|--------------------------
A|--------------------------
E|--5-----0-----8-----3-----

Verse 1

E|--------------------------------------------------------|--------------------------------------------|--
B|--------------------------------------------------------|--------------------------------------------|--
G|--0--2--0--2--0-----0--2--0--2--0-----0--2--0-----------|--0--2--0--2--0-----0--2--0--2--0-----------|--
D|-----------------2-----------------2-----------2--0--2--|-----------------2-----------------2--2--5--|--
A|--------------------------------------------------------|--------------------------------------------|--
E|--------------------------------------------------------|--------------------------------------------|--

Verse 2

E|--------------------------------------|--------------------------------------|--
B|--------------1--------------1--------|--------------1--------------1--------|--
G|--0--2--0--2-----0--2--0--2-----------|--0--2--0--2-----0--2--0--2-----------|--
D|--------------------------------2--5--|--------------------------------2--5--|--
A|--------------------------------------|--------------------------------------|--
E|--------------------------------------|--------------------------------------|--

Chorus & Rap (evtl. verzerrt)

E|---------------|--
B|---------------|--
G|---------------|--
D|--7--10--5--9--|--
A|--7--10--5--9--|--
E|--5--8---3--7--|--

http://www.guitartabcreator.com
Guitar Tab Creator is intended to store guitar tab created through the tool. It currently does not support in-line text editing. Any text you place in here will be lost. If you need to comment on your tab, please use the "Tab Notes" section located below.