Sound will begin in 5 seconds

Berge versetze (B)

01234567891011121314151617181920212223
E
B
G
D
A
E
B
0 1 2 3 4 5 6 7 8 9 10 11 12 13 14 15 16 17 18 19 20 21 22 23
(/) Slide Up  (\) Slide Down  (h) Hammer On  (p) Pull Off  (b) Bend (r) Release (v) Vibrato

Verse

E|--------------
B|--------------
G|--8--9--8--6--
D|--------------
A|--------------
E|--------------

Pre-Chorus

E|-----------
B|-----------
G|--6--8-----
D|--------9--
A|-----------
E|-----------

Chorus

E|--------------------------------------------------
B|-----------7-----------7-----------7-----------7--
G|-----8-----------8-----------8-----------9--------
D|--9-----9-----9-----9-----9-----9-----9-----9-----
A|--------------------------------------------------
E|--------------------------------------------------

Bridge (Ohs mitspielen)

E|--
B|--
G|--
D|--
A|--
E|--

http://www.guitartabcreator.com
Guitar Tab Creator is intended to store guitar tab created through the tool. It currently does not support in-line text editing. Any text you place in here will be lost. If you need to comment on your tab, please use the "Tab Notes" section located below.