Sound will begin in 5 seconds

All About You (E)

01234567891011121314151617181920212223
E
B
G
D
A
E
B
0 1 2 3 4 5 6 7 8 9 10 11 12 13 14 15 16 17 18 19 20 21 22 23
(/) Slide Up  (\) Slide Down  (h) Hammer On  (p) Pull Off  (b) Bend (r) Release (v) Vibrato

Chorus

E|----------------------------------|-
B|----12-14-------12-14-------------|-
G|----------13----------11----------|-
D|-14----------14----------14-14-14-|-
A|----------------------------------|-
E|----------------------------------|-

Bridge BUILD

E|-------------------------|-
B|-------------------------|-
G|----14----13----11----11-|-
D|-14----14----14----14----|-
A|-------------------------|-
E|-------------------------|-

http://www.guitartabcreator.com
Guitar Tab Creator is intended to store guitar tab created through the tool. It currently does not support in-line text editing. Any text you place in here will be lost. If you need to comment on your tab, please use the "Tab Notes" section located below.