Winter Horrorland - Friday Night Funkin'

01234567891011121314151617181920212223
E
B
G
D
A
E
B
0 1 2 3 4 5 6 7 8 9 10 11 12 13 14 15 16 17 18 19 20 21 22 23
(/) Slide Up  (\) Slide Down  (h) Hammer On  (p) Pull Off  (b) Bend (r) Release (v) Vibrato

"Your skin is freezing...." (1):

E|-------------------------------------------------------------
B|----------9--12-----9-------------9--------------------------
G|--10--12------------------10--12------------9----------------
D|-------------------------------------10--------10--8---------
A|------------------------------------------------------12-----
E|-------------------------------------------------------------

"Feasting with your friends...." (2):

E|--------------------------------------------------------------------------------------------------
B|--------------------------------------------------------------------------------------------------
G|------------------------7h9--7------7------------------------------------------12--14--12--10-----
D|------12--10--12--8-------------11-----8--7-----12--11--12--11--12--11--10------------------------
A|--12----------------------------------------------------------------------------------------------
E|--------------------------------------------------------------------------------------------------

"Gonna take a piece...." (3):

E|--10--10--11------------12-----14-----11--9-----10--11------------------------
B|--------------12--9-------------------------------------12--9-----------------
G|------------------------------------------------------------------9-----8-----
D|------------------------------------------------------------------------------
A|------------------------------------------------------------------------------
E|------------------------------------------------------------------------------

"Snowmen smiling with...." (4):

E|-------------------
B|--10---------------
G|------9------8-----
D|---------11--------
A|-------------------
E|-------------------

"....created with your meat" (5):

E|----------------------------------------------------------------------------12--12--12-----
B|---------10-----14--12--14--12--10------------12-----14--12--12--14--12--------------------
G|-------------------------------------------------------------------------------------------
D|--12-----------------------------------13--------------------------------------------------
A|-------------------------------------------------------------------------------------------
E|-------------------------------------------------------------------------------------------

"Cut in a thousand slices...." (6):

E|--9---------9--11--12--11--9--------------------------------
B|--------10--------------------------------------------------
G|----------------------------------11--14---------13--16-----
D|------------------------------12-------------14-------------
A|------------------------------------------------------------
E|------------------------------------------------------------

"Stuff you with spices...." (7):

E|--9--------------------------------9-----11-----14-----12-----
B|-----12--10---------10--10-----12-----------------------------
G|----------------11--------------------------------------------
D|--------------------------------------------------------------
A|--------------------------------------------------------------
E|--------------------------------------------------------------

"Separate you from you eyes...." (8):

E|-------------------------------------------------------------------------------------------------
B|-----------------9-------------------------------------------------------------11--12--11--9-----
G|--7--7--8-----------9--7-----11--9--8-------------------8----------------------------------------
D|--------------9------------------------9------9--8----------------9--11--8-----------------------
A|------------------------------------------11--------10--------11---------------------------------
E|-------------------------------------------------------------------------------------------------

"Soak your hands in...." (9):

E|------------------------------
B|------------------------------
G|--9--9--9--9--10--9--8--9-----
D|------------------------------
A|------------------------------
E|------------------------------

"Watching as the...." (10):

E|-----------------------------
B|--8-----------8--------------
G|-----9--8--9-----9--8--9-----
D|-----------------------------
A|-----------------------------
E|-----------------------------

"See your bones...." (11):

E|--------------------------------------------------
B|--12--11-------------10--9------------------------
G|----------10--11------------8--9--------10--9-----
D|--------------------------------------------------
A|--------------------------------------------------
E|--------------------------------------------------

"Gonna take a piece...." (12):

E|----------------------------------------------------------------------------------
B|-----12--12--13-------------14----------------------12--13------------------------
G|-----------------13--10------------13-----9--12-------------13--10----------------
D|-----------------------------------------------------------------------11--10-----
A|----------------------------------------------------------------------------------
E|----------------------------------------------------------------------------------

"Gonna take a peek...." (13):

E|-----10--10--11------------12-----14-----11-----10--11------------------------
B|-----------------12--9----------------------------------12--9-----------------
G|------------------------------------------------------------------9-----8-----
D|------------------------------------------------------------------------------
A|------------------------------------------------------------------------------
E|------------------------------------------------------------------------------

"Turn the heat on...." (14):

E|----------------------------------------------------
B|---------------------------9------------------------
G|--11-----8--10--11--10--8---------------------9-----
D|---------------------------------9-----11-----------
A|----------------------------------------------------
E|----------------------------------------------------

"Boil lil' Boyfriend...." (15):

E|---------------------------------------------------------------------------
B|---------------------------------------------9-----7-----------------------
G|--8-----------------------------8-----10-----------------7--5--4-----------
D|-----11--9---------9--9-----11------------------------------------7--5-----
A|---------------11----------------------------------------------------------
E|---------------------------------------------------------------------------

							http://www.guitartabcreator.com
Chords

Tab Notes

***These tabs do not include any of the other auxiliary parts***

After (13), it plays in this order:

  • (6)
  • (7)
  • Continue the song from (14) on

Enjoy :)

Cover video here! :)

Instruments
{"strings":[[[".",".",".",".","_",".","_",".",".",".",".","_",".",".",".",".","_"],[".",".",9,12,"_",9,"_",".",".",9,".","_",".",".",".",".","_"],[10,12,".",".","_",".","_",10,12,".",".","_",9,".",".",".","_"],[".",".",".",".","_",".","_",".",".",".",10,"_",".",10,8,".","_"],[".",".",".",".","_",".","_",".",".",".",".","_",".",".",".",12,"_"],[".",".",".",".","_",".","_",".",".",".",".","_",".",".",".",".","_"]],[[".",".",".",".",".","_",".",".",".",".",".",".",".",".","_",".",".",".",".",".",".",".","_",".",".",".",".","_"],[".",".",".",".",".","_",".",".",".",".",".",".",".",".","_",".",".",".",".",".",".",".","_",".",".",".",".","_"],[".",".",".",".",".","_",7,"h",9,7,".",7,".",".","_",".",".",".",".",".",".",".","_",12,14,12,10,"_"],[".",12,10,12,8,"_",".",".",".",".",11,".",8,7,"_",12,11,12,11,12,11,10,"_",".",".",".",".","_"],[12,".",".",".",".","_",".",".",".",".",".",".",".",".","_",".",".",".",".",".",".",".","_",".",".",".",".","_"],[".",".",".",".",".","_",".",".",".",".",".",".",".",".","_",".",".",".",".",".",".",".","_",".",".",".",".","_"]],[[10,10,11,".",".","_",12,"_",14,"_",11,9,"_",10,11,".",".","_",".","_",".","_"],[".",".",".",12,9,"_",".","_",".","_",".",".","_",".",".",12,9,"_",".","_",".","_"],[".",".",".",".",".","_",".","_",".","_",".",".","_",".",".",".",".","_",9,"_",8,"_"],[".",".",".",".",".","_",".","_",".","_",".",".","_",".",".",".",".","_",".","_",".","_"],[".",".",".",".",".","_",".","_",".","_",".",".","_",".",".",".",".","_",".","_",".","_"],[".",".",".",".",".","_",".","_",".","_",".",".","_",".",".",".",".","_",".","_",".","_"]],[[".",".",".",".","_"],[10,".",".",".","_"],[".",9,".",8,"_"],[".",".",11,".","_"],[".",".",".",".","_"],[".",".",".",".","_"]],[[".","_",".","_",".",".",".",".",".","_",".","_",".","_",".",".",".",".",".","_",12,12,12,"_"],[".","_",10,"_",14,12,14,12,10,"_",".","_",12,"_",14,12,12,14,12,"_",".",".",".","_"],[".","_",".","_",".",".",".",".",".","_",".","_",".","_",".",".",".",".",".","_",".",".",".","_"],[12,"_",".","_",".",".",".",".",".","_",13,"_",".","_",".",".",".",".",".","_",".",".",".","_"],[".","_",".","_",".",".",".",".",".","_",".","_",".","_",".",".",".",".",".","_",".",".",".","_"],[".","_",".","_",".",".",".",".",".","_",".","_",".","_",".",".",".",".",".","_",".",".",".","_"]],[[9,"_",".",9,11,12,11,9,".",".",".","_",".",".",".","_"],[".","_",10,".",".",".",".",".",".",".",".","_",".",".",".","_"],[".","_",".",".",".",".",".",".",".",11,14,"_",".",13,16,"_"],[".","_",".",".",".",".",".",".",12,".",".","_",14,".",".","_"],[".","_",".",".",".",".",".",".",".",".",".","_",".",".",".","_"],[".","_",".",".",".",".",".",".",".",".",".","_",".",".",".","_"]],[[9,".",".","_",".",".",".","_",".",9,"_",11,"_",14,"_",12,"_"],[".",12,10,"_",".",10,10,"_",12,".","_",".","_",".","_",".","_"],[".",".",".","_",11,".",".","_",".",".","_",".","_",".","_",".","_"],[".",".",".","_",".",".",".","_",".",".","_",".","_",".","_",".","_"],[".",".",".","_",".",".",".","_",".",".","_",".","_",".","_",".","_"],[".",".",".","_",".",".",".","_",".",".","_",".","_",".","_",".","_"]],[[".",".",".","_",".",".",".",".","_",".",".",".",".",".",".",".",".",".","_",".",".",".",".","_",".",".",".",".","_"],[".",".",".","_",".",9,".",".","_",".",".",".",".",".",".",".",".",".","_",".",".",".",".","_",11,12,11,9,"_"],[7,7,8,"_",".",".",9,7,"_",11,9,8,".",".",".",".",".",8,"_",".",".",".",".","_",".",".",".",".","_"],[".",".",".","_",9,".",".",".","_",".",".",".",9,".",9,8,".",".","_",".",9,11,8,"_",".",".",".",".","_"],[".",".",".","_",".",".",".",".","_",".",".",".",".",11,".",".",10,".","_",11,".",".",".","_",".",".",".",".","_"],[".",".",".","_",".",".",".",".","_",".",".",".",".",".",".",".",".",".","_",".",".",".",".","_",".",".",".",".","_"]],[[".",".",".",".",".",".",".",".","_"],[".",".",".",".",".",".",".",".","_"],[9,9,9,9,10,9,8,9,"_"],[".",".",".",".",".",".",".",".","_"],[".",".",".",".",".",".",".",".","_"],[".",".",".",".",".",".",".",".","_"]],[[".",".",".",".",".",".",".",".","_"],[8,".",".",".",8,".",".",".","_"],[".",9,8,9,".",9,8,9,"_"],[".",".",".",".",".",".",".",".","_"],[".",".",".",".",".",".",".",".","_"],[".",".",".",".",".",".",".",".","_"]],[[".",".",".",".","_",".",".",".",".","_","_",".",".","_"],[12,11,".",".","_",10,9,".",".","_","_",".",".","_"],[".",".",10,11,"_",".",".",8,9,"_","_",10,9,"_"],[".",".",".",".","_",".",".",".",".","_","_",".",".","_"],[".",".",".",".","_",".",".",".",".","_","_",".",".","_"],[".",".",".",".","_",".",".",".",".","_","_",".",".","_"]],[["_",".",".",".",".",".","_",".","_",".","_",".",".","_",".",".",".",".","_",".",".","_"],["_",12,12,13,".",".","_",14,"_",".","_",".",".","_",12,13,".",".","_",".",".","_"],["_",".",".",".",13,10,"_",".","_",13,"_",9,12,"_",".",".",13,10,"_",".",".","_"],["_",".",".",".",".",".","_",".","_",".","_",".",".","_",".",".",".",".","_",11,10,"_"],["_",".",".",".",".",".","_",".","_",".","_",".",".","_",".",".",".",".","_",".",".","_"],["_",".",".",".",".",".","_",".","_",".","_",".",".","_",".",".",".",".","_",".",".","_"]],[["_",10,10,11,".",".","_",12,"_",14,"_",11,"_",10,11,".",".","_",".","_",".","_"],["_",".",".",".",12,9,"_",".","_",".","_",".","_",".",".",12,9,"_",".","_",".","_"],["_",".",".",".",".",".","_",".","_",".","_",".","_",".",".",".",".","_",9,"_",8,"_"],["_",".",".",".",".",".","_",".","_",".","_",".","_",".",".",".",".","_",".","_",".","_"],["_",".",".",".",".",".","_",".","_",".","_",".","_",".",".",".",".","_",".","_",".","_"],["_",".",".",".",".",".","_",".","_",".","_",".","_",".",".",".",".","_",".","_",".","_"]],[[".","_",".",".",".",".",".",".","_",".","_",".","_",".","_"],[".","_",".",".",".",".",".",9,"_",".","_",".","_",".","_"],[11,"_",8,10,11,10,8,".","_",".","_",".","_",9,"_"],[".","_",".",".",".",".",".",".","_",9,"_",11,"_",".","_"],[".","_",".",".",".",".",".",".","_",".","_",".","_",".","_"],[".","_",".",".",".",".",".",".","_",".","_",".","_",".","_"]],[[".",".",".","_",".",".",".","_",".",".","_",".","_",".","_",".","_",".",".",".",".",".","_"],[".",".",".","_",".",".",".","_",".",".","_",".","_",9,"_",7,"_",".",".",".",".",".","_"],[8,".",".","_",".",".",".","_",".",8,"_",10,"_",".","_",".","_",7,5,4,".",".","_"],[".",11,9,"_",".",9,9,"_",11,".","_",".","_",".","_",".","_",".",".",".",7,5,"_"],[".",".",".","_",11,".",".","_",".",".","_",".","_",".","_",".","_",".",".",".",".",".","_"],[".",".",".","_",".",".",".","_",".",".","_",".","_",".","_",".","_",".",".",".",".",".","_"]]],"numberofstrings":6,"notes":["E","B","G","D","A","E","B"],"capo":0,"stringnotes":["E4","B3","G3","D3","A2","E2"],"comments":["\"Your skin is freezing....\" (1):","\"Feasting with your friends....\" (2):","\"Gonna take a piece....\" (3):","\"Snowmen smiling with....\" (4):","\"....created with your meat\" (5):","\"Cut in a thousand slices....\" (6):","\"Stuff you with spices....\" (7):","\"Separate you from you eyes....\" (8):","\"Soak your hands in....\" (9):","\"Watching as the....\" (10):","\"See your bones....\" (11):","\"Gonna take a piece....\" (12):","\"Gonna take a peek....\" (13):","\"Turn the heat on....\" (14):","\"Boil lil' Boyfriend....\" (15):","\"With brandy and plums\" (16):"],"timing":[["W","W","W","W",null,"W",null,"W","W","W","W",null,"W","W","W","W"],["W","W","W","W","W",null,"W",null,"W","W","W","W","W","W",null,"W","W","W","W","W","W","W",null,"W","W","W","W"],["W","W","W","W","W",null,"W",null,"W",null,"W","W",null,"W","W","W","W",null,"W",null,"W"],["W","W","W","W"],["W","W","W",null,"W","W","W","W","W",null,"W",null,"W",null,"W","W","W","W","W","W","W","W","W"],["W",null,"W","W","W","W","W","W","W","W","W",null,"W","W","W"],["W","W","W",null,"W","W","W",null,"W","W","W","W","W","W",null,"W"],["W","W","W",null,"W","W","W","W",null,"W","W","W","W","W","W","W","W","W","W","W","W","W","W","W","W","W","W","W","W","W"],["W","W","W","W","W","W","W","W"],["W","W","W","W","W","W","W","W"],["W","W","W","W",null,"W","W","W","W",null,null,"W","W"],[null,"W","W","W","W","W",null,"W",null,"W",null,"W","W",null,"W","W","W","W",null,"W","W"],["W","W","W","W","W","W","W","W","W","W","W","W","W","W","W","W","W","W","W","W","W"],["W",null,"W","W","W","W","W","W",null,"W",null,"W",null,"W"],["W","W","W","W","W","W","W",null,"W","W",null,"W",null,"W",null,"W",null,"W","W","W","W","W"],[]],"timingvisible":false,"tabcounter":23,"stave":14,"totalstaves":15,"instrument":"6guitar","selectedtuning":"6_standard","version":"13"}

Member for

2 months 2 weeks
Picture
About Me

Just a content creator making tabs :)

 

Here's a link to my content; check it out! (Youtube for tab covers)

xXxGodseyxXx

Submitted by xXxGodseyxXx on Sun, 2021-01-24 17:25