Something Spiteful - Friday Night Funkin' VS Ex-Gf Ayana Mod

01234567891011121314151617181920212223
E
B
G
D
A
E
B
0 1 2 3 4 5 6 7 8 9 10 11 12 13 14 15 16 17 18 19 20 21 22 23
(/) Slide Up  (\) Slide Down  (h) Hammer On  (p) Pull Off  (b) Bend (r) Release (v) Vibrato

Call 1 (1):

E|-------------------------------------------------------------
B|-10----10----10----13----------10----10----10----15----13----
G|-------------------------12----------------------------------
D|-------------------------------------------------------------
A|-------------------------------------------------------------
E|-------------------------------------------------------------

Response 1 (2):

E|-------------------------------------------------------
B|-------------------------------------------------------
G|-------------------------------------------------------
D|-7----7----7----10----------7----7----7----12----10----
A|----------------------10-------------------------------
E|-------------------------------------------------------

Call 2 (3):

E|-------------------------------------------------------------------
B|-10----10----10----12/13----------10----10----10----15----13-12----
G|----------------------------12-------------------------------------
D|-------------------------------------------------------------------
A|-------------------------------------------------------------------
E|-------------------------------------------------------------------

Response 2 (4):

E|---------------------------------------------------------
B|---------------------------------------------------------
G|---------------------------------------------------------
D|-7----7----7----10----------7----7----7----12----10-9----
A|----------------------10---------------------------------
E|---------------------------------------------------------

Call 3 (5):

E|----------------------12-------------------------12/15----13-12----------------
B|-10-------10-12-13-------13----12----13-12-------------------------15-13-12----
G|-------12----------------------------------12----------------------------------
D|-------------------------------------------------------------------------------
A|-------------------------------------------------------------------------------
E|-------------------------------------------------------------------------------

Response 3 (6):

E|----------------------12----------------------------------------------------
B|-10-------10-12-13-------13----12----13-12----------------------------------
G|-------12----------------------------------12----9/12----10-9---------------
D|-----------------------------------------------------------------12-10-9----
A|----------------------------------------------------------------------------
E|----------------------------------------------------------------------------

Call & Response 4 (7):

E|-------------------------------------------------------------------------------------
B|-13----12-13----12----13----12----13-10----15----13-15----13----15----13----15-------
G|-------------------------------------------------------------------------------12----
D|-------------------------------------------------------------------------------------
A|-------------------------------------------------------------------------------------
E|-------------------------------------------------------------------------------------

Call & Response 4 (8):

E|----------------------------------------------------------------------------12----
B|-15/17----15-13-15----12-13----12----13----10----12-10-12-10-12-13----15----------
G|----------------------------------------------------------------------------------
D|----------------------------------------------------------------------------------
A|----------------------------------------------------------------------------------
E|----------------------------------------------------------------------------------

Call 5 & 6 (9):

E|----------------------------------12----------------
B|-10/18-18-18-17-17-13-13-12-13-15----15-13-12-------
G|----------------------------------------------12----
D|----------------------------------------------------
A|----------------------------------------------------
E|----------------------------------------------------

Response 5 (10):

E|----------------------------------------
B|----------------------------------------
G|--------------------------------9-------
D|-7/15-15-15-14-14-10-10-9-10-12---12----
A|----------------------------------------
E|----------------------------------------

Response 6 (11):

E|----------------------------------------
B|----------------------------------------
G|----------------------------------------
D|-7/15-15-15-14-14-10-10-9-10-9----------
A|-------------------------------10-12----
E|----------------------------------------

Harmony for Call 3 (12):

E|--------------------------------------------------------------------------
B|--------------------------------------------------------------------------
G|---------------9----12-9----------9---------12/16----14-12----------------
D|-10----9-10-12--------------12------12-9----------------------15-14-12----
A|--------------------------------------------------------------------------
E|--------------------------------------------------------------------------

Call 7 (13):

E|----------------------12-------15----13-12-------
B|-10-------10-12-13-------13----------------15----
G|-------12----------------------------------------
D|-------------------------------------------------
A|-------------------------------------------------
E|-------------------------------------------------

Harmony for Call 7 (14):

E|------------------------------------------------
B|---------------10----13-10----12----12-10-------
G|-10----9-10-12----------------------------12----
D|------------------------------------------------
A|------------------------------------------------
E|------------------------------------------------

Call 7.5 (15):

E|----------------------------------------------
B|----------------------------------------------
G|-12-12-12-12-12-12-12-12-12-12-12-12-13-13----
D|----------------------------------------------
A|----------------------------------------------
E|----------------------------------------------

Response 3 pt. 2 (16):

E|----------------------------------------------------------------------
B|----------------------------------------------------------------------
G|-------------------9-----------------------9/12----10-9---------------
D|-7-------7-9-10------10----9----10-9-----------------------12-10-9----
A|------10-----------------------------10-------------------------------
E|----------------------------------------------------------------------

							http://www.guitartabcreator.com
Chords

Instruments
{"strings":[[[".","_",".","_",".","_",".","_",".","_",".","_",".","_",".","_",".","_",".","_"],[10,"_",10,"_",10,"_",13,"_",".","_",10,"_",10,"_",10,"_",15,"_",13,"_"],[".","_",".","_",".","_",".","_",12,"_",".","_",".","_",".","_",".","_",".","_"],[".","_",".","_",".","_",".","_",".","_",".","_",".","_",".","_",".","_",".","_"],[".","_",".","_",".","_",".","_",".","_",".","_",".","_",".","_",".","_",".","_"],[".","_",".","_",".","_",".","_",".","_",".","_",".","_",".","_",".","_",".","_"]],[[".","_",".","_",".","_",".","_",".","_",".","_",".","_",".","_",".","_",".","_"],[".","_",".","_",".","_",".","_",".","_",".","_",".","_",".","_",".","_",".","_"],[".","_",".","_",".","_",".","_",".","_",".","_",".","_",".","_",".","_",".","_"],[7,"_",7,"_",7,"_",10,"_",".","_",7,"_",7,"_",7,"_",12,"_",10,"_"],[".","_",".","_",".","_",".","_",10,"_",".","_",".","_",".","_",".","_",".","_"],[".","_",".","_",".","_",".","_",".","_",".","_",".","_",".","_",".","_",".","_"]],[[".","_",".","_",".","_",".",".",".","_",".","_",".","_",".","_",".","_",".","_",".",".","_"],[10,"_",10,"_",10,"_",12,"/",13,"_",".","_",10,"_",10,"_",10,"_",15,"_",13,12,"_"],[".","_",".","_",".","_",".",".",".","_",12,"_",".","_",".","_",".","_",".","_",".",".","_"],[".","_",".","_",".","_",".",".",".","_",".","_",".","_",".","_",".","_",".","_",".",".","_"],[".","_",".","_",".","_",".",".",".","_",".","_",".","_",".","_",".","_",".","_",".",".","_"],[".","_",".","_",".","_",".",".",".","_",".","_",".","_",".","_",".","_",".","_",".",".","_"]],[[".","_",".","_",".","_",".","_",".","_",".","_",".","_",".","_",".","_",".",".","_"],[".","_",".","_",".","_",".","_",".","_",".","_",".","_",".","_",".","_",".",".","_"],[".","_",".","_",".","_",".","_",".","_",".","_",".","_",".","_",".","_",".",".","_"],[7,"_",7,"_",7,"_",10,"_",".","_",7,"_",7,"_",7,"_",12,"_",10,9,"_"],[".","_",".","_",".","_",".","_",10,"_",".","_",".","_",".","_",".","_",".",".","_"],[".","_",".","_",".","_",".","_",".","_",".","_",".","_",".","_",".","_",".",".","_"]],[[".","_",".",".",".",".","_",12,".","_",".","_",".",".",".","_",12,"/",15,"_",13,12,"_",".",".",".","_"],[10,"_",".",10,12,13,"_",".",13,"_",12,"_",13,12,".","_",".",".",".","_",".",".","_",15,13,12,"_"],[".","_",12,".",".",".","_",".",".","_",".","_",".",".",12,"_",".",".",".","_",".",".","_",".",".",".","_"],[".","_",".",".",".",".","_",".",".","_",".","_",".",".",".","_",".",".",".","_",".",".","_",".",".",".","_"],[".","_",".",".",".",".","_",".",".","_",".","_",".",".",".","_",".",".",".","_",".",".","_",".",".",".","_"],[".","_",".",".",".",".","_",".",".","_",".","_",".",".",".","_",".",".",".","_",".",".","_",".",".",".","_"]],[[".","_",".",".",".",".","_",12,".","_",".","_",".",".",".","_",".",".",".","_",".",".","_",".",".",".","_"],[10,"_",".",10,12,13,"_",".",13,"_",12,"_",13,12,".","_",".",".",".","_",".",".","_",".",".",".","_"],[".","_",12,".",".",".","_",".",".","_",".","_",".",".",12,"_",9,"/",12,"_",10,9,"_",".",".",".","_"],[".","_",".",".",".",".","_",".",".","_",".","_",".",".",".","_",".",".",".","_",".",".","_",12,10,9,"_"],[".","_",".",".",".",".","_",".",".","_",".","_",".",".",".","_",".",".",".","_",".",".","_",".",".",".","_"],[".","_",".",".",".",".","_",".",".","_",".","_",".",".",".","_",".",".",".","_",".",".","_",".",".",".","_"]],[[".","_",".",".","_",".","_",".","_",".","_",".",".","_",".","_",".",".","_",".","_",".","_",".","_",".",".","_"],[13,"_",12,13,"_",12,"_",13,"_",12,"_",13,10,"_",15,"_",13,15,"_",13,"_",15,"_",13,"_",15,".","_"],[".","_",".",".","_",".","_",".","_",".","_",".",".","_",".","_",".",".","_",".","_",".","_",".","_",".",12,"_"],[".","_",".",".","_",".","_",".","_",".","_",".",".","_",".","_",".",".","_",".","_",".","_",".","_",".",".","_"],[".","_",".",".","_",".","_",".","_",".","_",".",".","_",".","_",".",".","_",".","_",".","_",".","_",".",".","_"],[".","_",".",".","_",".","_",".","_",".","_",".",".","_",".","_",".",".","_",".","_",".","_",".","_",".",".","_"]],[[".",".",".","_",".",".",".","_",".",".","_",".","_",".","_",".","_",".",".",".",".",".",".","_",".","_",12,"_"],[15,"/",17,"_",15,13,15,"_",12,13,"_",12,"_",13,"_",10,"_",12,10,12,10,12,13,"_",15,"_",".","_"],[".",".",".","_",".",".",".","_",".",".","_",".","_",".","_",".","_",".",".",".",".",".",".","_",".","_",".","_"],[".",".",".","_",".",".",".","_",".",".","_",".","_",".","_",".","_",".",".",".",".",".",".","_",".","_",".","_"],[".",".",".","_",".",".",".","_",".",".","_",".","_",".","_",".","_",".",".",".",".",".",".","_",".","_",".","_"],[".",".",".","_",".",".",".","_",".",".","_",".","_",".","_",".","_",".",".",".",".",".",".","_",".","_",".","_"]],[[".",".",".",".",".",".",".",".",".",".",".",".",12,".",".",".",".","_"],[10,"/",18,18,18,17,17,13,13,12,13,15,".",15,13,12,".","_"],[".",".",".",".",".",".",".",".",".",".",".",".",".",".",".",".",12,"_"],[".",".",".",".",".",".",".",".",".",".",".",".",".",".",".",".",".","_"],[".",".",".",".",".",".",".",".",".",".",".",".",".",".",".",".",".","_"],[".",".",".",".",".",".",".",".",".",".",".",".",".",".",".",".",".","_"]],[[".",".",".",".",".",".",".",".",".",".",".",".",".",".","_"],[".",".",".",".",".",".",".",".",".",".",".",".",".",".","_"],[".",".",".",".",".",".",".",".",".",".",".",".",9,".","_"],[7,"/",15,15,15,14,14,10,10,9,10,12,".",12,"_"],[".",".",".",".",".",".",".",".",".",".",".",".",".",".","_"],[".",".",".",".",".",".",".",".",".",".",".",".",".",".","_"]],[[".",".",".",".",".",".",".",".",".",".",".",".",".",".","_"],[".",".",".",".",".",".",".",".",".",".",".",".",".",".","_"],[".",".",".",".",".",".",".",".",".",".",".",".",".",".","_"],[7,"/",15,15,15,14,14,10,10,9,10,9,".",".","_"],[".",".",".",".",".",".",".",".",".",".",".",".",10,12,"_"],[".",".",".",".",".",".",".",".",".",".",".",".",".",".","_"]],[[".","_",".",".",".",".","_",".",".","_",".","_",".",".",".","_",".",".",".","_",".",".","_",".",".",".","_"],[".","_",".",".",".",".","_",".",".","_",".","_",".",".",".","_",".",".",".","_",".",".","_",".",".",".","_"],[".","_",".",".",".",9,"_",12,9,"_",".","_",9,".",".","_",12,"/",16,"_",14,12,"_",".",".",".","_"],[10,"_",9,10,12,".","_",".",".","_",12,"_",".",12,9,"_",".",".",".","_",".",".","_",15,14,12,"_"],[".","_",".",".",".",".","_",".",".","_",".","_",".",".",".","_",".",".",".","_",".",".","_",".",".",".","_"],[".","_",".",".",".",".","_",".",".","_",".","_",".",".",".","_",".",".",".","_",".",".","_",".",".",".","_"]],[[".","_",".",".",".",".","_",12,".","_",15,"_",13,12,".","_"],[10,"_",".",10,12,13,"_",".",13,"_",".","_",".",".",15,"_"],[".","_",12,".",".",".","_",".",".","_",".","_",".",".",".","_"],[".","_",".",".",".",".","_",".",".","_",".","_",".",".",".","_"],[".","_",".",".",".",".","_",".",".","_",".","_",".",".",".","_"],[".","_",".",".",".",".","_",".",".","_",".","_",".",".",".","_"]],[[".","_",".",".",".",".","_",".",".","_",".","_",".",".",".","_"],[".","_",".",".",".",10,"_",13,10,"_",12,"_",12,10,".","_"],[10,"_",9,10,12,".","_",".",".","_",".","_",".",".",12,"_"],[".","_",".",".",".",".","_",".",".","_",".","_",".",".",".","_"],[".","_",".",".",".",".","_",".",".","_",".","_",".",".",".","_"],[".","_",".",".",".",".","_",".",".","_",".","_",".",".",".","_"]],[[".",".",".",".",".",".",".",".",".",".",".",".",".",".","_"],[".",".",".",".",".",".",".",".",".",".",".",".",".",".","_"],[12,12,12,12,12,12,12,12,12,12,12,12,13,13,"_"],[".",".",".",".",".",".",".",".",".",".",".",".",".",".","_"],[".",".",".",".",".",".",".",".",".",".",".",".",".",".","_"],[".",".",".",".",".",".",".",".",".",".",".",".",".",".","_"]],[[".","_",".",".",".",".","_",".",".","_",".","_",".",".",".","_",".",".",".","_",".",".","_",".",".",".","_"],[".","_",".",".",".",".","_",".",".","_",".","_",".",".",".","_",".",".",".","_",".",".","_",".",".",".","_"],[".","_",".",".",".",".","_",9,".","_",".","_",".",".",".","_",9,"/",12,"_",10,9,"_",".",".",".","_"],[7,"_",".",7,9,10,"_",".",10,"_",9,"_",10,9,".","_",".",".",".","_",".",".","_",12,10,9,"_"],[".","_",10,".",".",".","_",".",".","_",".","_",".",".",10,"_",".",".",".","_",".",".","_",".",".",".","_"],[".","_",".",".",".",".","_",".",".","_",".","_",".",".",".","_",".",".",".","_",".",".","_",".",".",".","_"]]],"numberofstrings":6,"notes":["E","B","G","D","A","E","B"],"capo":0,"stringnotes":["E4","B3","G3","D3","A2","E2"],"comments":["Call 1 (1):","Response 1 (2):","Call 2 (3):","Response 2 (4):","Call 3 (5):","Response 3 (6):","Call & Response 4 (7):","Call & Response 4 (8):","Call 5 & 6 (9):","Response 5 (10):","Response 6 (11):","Harmony for Call 3 (12):","Call 7 (13):","Harmony for Call 7 (14):","Call 7.5 (15):","Response 3 pt. 2 (16):"],"timing":[["W",null,"W",null,"W",null,"W",null,"W",null,"W",null,"W",null,"W",null,"W",null,"W"],["W",null,"W",null,"W",null,"W",null,"W",null,"W",null,"W",null,"W",null,"W",null,"W"],["W",null,"W",null,"W",null,"W",null,"W",null,"W",null,"W",null,"W",null,"W",null,"W",null,"W","W"],["W",null,"W",null,"W",null,"W",null,"W",null,"W",null,"W",null,"W",null,"W",null,"W","W"],["W",null,"W","W","W","W",null,"W","W",null,"W",null,"W","W","W",null,"W",null,"W",null,"W","W",null,"W","W","W"],["W",null,"W","W","W","W",null,"W","W",null,"W",null,"W","W","W",null,"W",null,"W",null,"W","W",null,"W","W","W"],["W",null,"W","W",null,"W",null,"W",null,"W",null,"W","W",null,"W",null,"W","W",null,"W",null,"W",null,"W",null,"W","W"],["W",null,"W",null,"W","W","W",null,"W","W",null,"W",null,"W",null,"W",null,"W","W","W","W","W","W",null,"W",null,"W"],["W",null,"W","W","W","W","W","W","W","W","W","W","W","W","W","W","W"],["W",null,"W","W","W","W","W","W","W","W","W","W","W","W"],["W",null,"W","W","W","W","W","W","W","W","W","W","W","W"],["W",null,"W","W","W","W",null,"W","W",null,"W",null,"W","W","W",null,"W",null,"W",null,"W","W",null,"W","W","W"],["W",null,"W","W","W","W",null,"W","W",null,"W",null,"W","W","W"],["W",null,"W","W","W","W",null,"W","W",null,"W",null,"W","W","W"],["W","W","W","W","W","W","W","W","W","W","W","W","W","W"],["W",null,"W","W","W","W",null,"W","W",null,"W",null,"W","W","W",null,"W",null,"W",null,"W","W",null,"W","W","W"]],"timingvisible":false,"tabcounter":27,"stave":15,"totalstaves":16,"instrument":"6guitar","selectedtuning":"6_standard","version":"13"}

Member for

4 months 1 week
Picture
About Me

Just a content creator making tabs :)

 

Here's a link to my content; check it out! (Youtube for tab covers)

xXxGodseyxXx

Submitted by xXxGodseyxXx on Fri, 2021-02-26 15:17