Screenplay - Friday Night Funkin' VS AGOTI mod

01234567891011121314151617181920212223
E
B
G
D
A
E
B
0 1 2 3 4 5 6 7 8 9 10 11 12 13 14 15 16 17 18 19 20 21 22 23
(/) Slide Up  (\) Slide Down  (h) Hammer On  (p) Pull Off  (b) Bend (r) Release (v) Vibrato

Stave 1:

E|---------------------------------------------------------------------------------
B|------11-9------------------------11-9----------------------11-------------------
G|---10--------10-10-10-10-8-----10--------10---10-10---10-10------10-8-10-11-10---
D|-8---------------------------8---------------------------------------------------
A|---------------------------------------------------------------------------------
E|---------------------------------------------------------------------------------

Stave 2:

E|------------------------------------------------------------------------------
B|------11-9------------------------11-9----------------------9-----------------
G|---10--------10-10-10-10-8-----10--------10---10-10---10-10-----8----8--------
D|-8---------------------------8------------------------------------11---11-8---
A|------------------------------------------------------------------------------
E|------------------------------------------------------------------------------

Stave 3:

E|-------------------------------------------------------------------------
B|--------------------------------11---9-----------------------------------
G|-10---10---8-10---10-10-10---10--------10-8---10---8-8-8-----------------
D|-----------------------------------------------------------11-11-10-10---
A|-------------------------------------------------------------------------
E|-------------------------------------------------------------------------

Stave 4:

E|------------------------------------------------------------
B|-------------------9---11-----------------------------------
G|--------------10------------8----8-------10-8---------------
D|-----8---11-------------------11---11-11------11-11-10-10---
A|-8----------------------------------------------------------
E|------------------------------------------------------------

Stave 5:

E|--------------------------------------------------------------
B|--------------------9---11------------------------------------
G|-10---8--------10------------8----8-------10---8-8------------
D|----------11-------------------11---11-11----------11-11-10---
A|--------------------------------------------------------------
E|--------------------------------------------------------------

Stave 6:

E|--------------------------------------------------------------------------
B|-11-9-11-----------11-9------------------------------11-9--------9-11-9---
G|------------------------10---8---10-8-----------10----------10------------
D|-----------------8----------------------11-10-----------------------------
A|-----------11-12----------------------------------------------------------
E|--------------------------------------------------------------------------

Stave 7:

E|---------------------------------------------------------------------------
B|-11-9-11-----------11-9------------------------------11-9------------------
G|------------------------10---8---10-8-----------10--------10-8----8--------
D|-----------------8----------------------11-10------------------11---11-8---
A|-----------11-12-----------------------------------------------------------
E|---------------------------------------------------------------------------

Stave 8:

E|-----------------------------------------9-11-13----13----13----13----11---11---9---8-----
B|---------9-11----11----11----11----11-13---------11----11----11----11----9----9-----------
G|-10-8-10------10----10----10----10------------------------------------------------8---5---
D|------------------------------------------------------------------------------------------
A|------------------------------------------------------------------------------------------
E|------------------------------------------------------------------------------------------

Stave 9:

E|-----------------------------------------9-11-13----13----13-16-13-16-11----9---8---6-----
B|---------9-11----11----11----11----11-13---------11----11---------------------------------
G|-10-8-10------10----10----10----10---------------------------------------10---8---5---3---
D|------------------------------------------------------------------------------------------
A|------------------------------------------------------------------------------------------
E|------------------------------------------------------------------------------------------

Stave 10:

E|--------------------------------------------------------------------------------------------------------------------------
B|--------------------------------------------------------------------------------------------11----------------------------
G|-------------------------------------------------------------------------------10-8----8-10------10---8------10-8-10-8----
D|-8---8---8-8-8---8-8-8---11-11-11---8-8-8-8---8-8-8-8---10-10-10-10---11-11-11------11--------------------10-----------10-
A|-------8---------------8--------------------------------------------------------------------------------------------------
E|--------------------------------------------------------------------------------------------------------------------------

Stave 11:

E|-------------------------------------------
B|-------------------------------------------
G|-----------8-------------------------------
D|-11---10-------8-8-8-8---8-8-8-8---8-8-8---
A|-------------------------------------------
E|-------------------------------------------

Stave 12:

E|------------------------------------------------
B|------------------------------------------------
G|-----------10-----------------------------------
D|-11---10--------11-11-11-11---10-10-10-10---8---
A|------------------------------------------------
E|------------------------------------------------

Stave 13:

E|---------------------------------------------------------------------
B|------11-9------------------------------11-9-------------------------
G|---10--------10---10---10---10-8-----10--------10---10---10---10-8---
D|-8---------------------------------8---------------------------------
A|---------------------------------------------------------------------
E|---------------------------------------------------------------------

							http://www.guitartabcreator.com
Chords

Instruments
{"strings":[[[".",".",".",".","_",".",".",".",".",".","_",".",".",".",".","_",".","_",".",".","_",".",".",".","_",".",".",".",".",".","_"],[".",".",11,9,"_",".",".",".",".",".","_",".",".",11,9,"_",".","_",".",".","_",".",".",11,"_",".",".",".",".",".","_"],[".",10,".",".","_",10,10,10,10,8,"_",".",10,".",".","_",10,"_",10,10,"_",10,10,".","_",10,8,10,11,10,"_"],[8,".",".",".","_",".",".",".",".",".","_",8,".",".",".","_",".","_",".",".","_",".",".",".","_",".",".",".",".",".","_"],[".",".",".",".","_",".",".",".",".",".","_",".",".",".",".","_",".","_",".",".","_",".",".",".","_",".",".",".",".",".","_"],[".",".",".",".","_",".",".",".",".",".","_",".",".",".",".","_",".","_",".",".","_",".",".",".","_",".",".",".",".",".","_"]],[[".",".",".",".","_",".",".",".",".",".","_",".",".",".",".","_",".","_",".",".","_",".",".",".","_",".",".",".",".",".","_"],[".",".",11,9,"_",".",".",".",".",".","_",".",".",11,9,"_",".","_",".",".","_",".",".",9,"_",".",".",".",".",".","_"],[".",10,".",".","_",10,10,10,10,8,"_",".",10,".",".","_",10,"_",10,10,"_",10,10,".","_",8,".",8,".",".","_"],[8,".",".",".","_",".",".",".",".",".","_",8,".",".",".","_",".","_",".",".","_",".",".",".","_",".",11,".",11,8,"_"],[".",".",".",".","_",".",".",".",".",".","_",".",".",".",".","_",".","_",".",".","_",".",".",".","_",".",".",".",".",".","_"],[".",".",".",".","_",".",".",".",".",".","_",".",".",".",".","_",".","_",".",".","_",".",".",".","_",".",".",".",".",".","_"]],[[".","_",".","_",".",".","_",".",".",".","_",".",".","_",".",".",".","_",".","_",".",".",".","_",".",".",".",".","_"],[".","_",".","_",".",".","_",".",".",".","_",".",11,"_",9,".",".","_",".","_",".",".",".","_",".",".",".",".","_"],[10,"_",10,"_",8,10,"_",10,10,10,"_",10,".","_",".",10,8,"_",10,"_",8,8,8,"_",".",".",".",".","_"],[".","_",".","_",".",".","_",".",".",".","_",".",".","_",".",".",".","_",".","_",".",".",".","_",11,11,10,10,"_"],[".","_",".","_",".",".","_",".",".",".","_",".",".","_",".",".",".","_",".","_",".",".",".","_",".",".",".",".","_"],[".","_",".","_",".",".","_",".",".",".","_",".",".","_",".",".",".","_",".","_",".",".",".","_",".",".",".",".","_"]],[[".","_",".","_",".","_",".","_",".","_",".","_",".",".",".",".",".",".",".",".",".",".",".","_"],[".","_",".","_",".","_",".","_",9,"_",11,"_",".",".",".",".",".",".",".",".",".",".",".","_"],[".","_",".","_",".","_",10,"_",".","_",".","_",8,".",8,".",".",10,8,".",".",".",".","_"],[".","_",8,"_",11,"_",".","_",".","_",".","_",".",11,".",11,11,".",".",11,11,10,10,"_"],[8,"_",".","_",".","_",".","_",".","_",".","_",".",".",".",".",".",".",".",".",".",".",".","_"],[".","_",".","_",".","_",".","_",".","_",".","_",".",".",".",".",".",".",".",".",".",".",".","_"]],[[".","_",".","_",".","_",".","_",".","_",".","_",".",".",".",".",".",".","_",".",".",".",".",".","_"],[".","_",".","_",".","_",".","_",9,"_",11,"_",".",".",".",".",".",".","_",".",".",".",".",".","_"],[10,"_",8,"_",".","_",10,"_",".","_",".","_",8,".",8,".",".",10,"_",8,8,".",".",".","_"],[".","_",".","_",11,"_",".","_",".","_",".","_",".",11,".",11,11,".","_",".",".",11,11,10,"_"],[".","_",".","_",".","_",".","_",".","_",".","_",".",".",".",".",".",".","_",".",".",".",".",".","_"],[".","_",".","_",".","_",".","_",".","_",".","_",".",".",".",".",".",".","_",".",".",".",".",".","_"]],[[".",".",".","_",".",".",".",".",".",".","_",".","_",".",".","_",".",".","_",".","_",".",".","_",".","_",".",".",".","_"],[11,9,11,"_",".",".",".",11,9,".","_",".","_",".",".","_",".",".","_",".","_",11,9,"_",".","_",9,11,9,"_"],[".",".",".","_",".",".",".",".",".",10,"_",8,"_",10,8,"_",".",".","_",10,"_",".",".","_",10,"_",".",".",".","_"],[".",".",".","_",".",".",8,".",".",".","_",".","_",".",".","_",11,10,"_",".","_",".",".","_",".","_",".",".",".","_"],[".",".",".","_",11,12,".",".",".",".","_",".","_",".",".","_",".",".","_",".","_",".",".","_",".","_",".",".",".","_"],[".",".",".","_",".",".",".",".",".",".","_",".","_",".",".","_",".",".","_",".","_",".",".","_",".","_",".",".",".","_"]],[[".",".",".","_",".",".",".",".",".",".","_",".","_",".",".","_",".",".","_",".","_",".",".",".",".",".",".",".",".","_"],[11,9,11,"_",".",".",".",11,9,".","_",".","_",".",".","_",".",".","_",".","_",11,9,".",".",".",".",".",".","_"],[".",".",".","_",".",".",".",".",".",10,"_",8,"_",10,8,"_",".",".","_",10,"_",".",".",10,8,".",8,".",".","_"],[".",".",".","_",".",".",8,".",".",".","_",".","_",".",".","_",11,10,"_",".","_",".",".",".",".",11,".",11,8,"_"],[".",".",".","_",11,12,".",".",".",".","_",".","_",".",".","_",".",".","_",".","_",".",".",".",".",".",".",".",".","_"],[".",".",".","_",".",".",".",".",".",".","_",".","_",".",".","_",".",".","_",".","_",".",".",".",".",".",".",".",".","_"]],[[".",".",".",".",".",".",".",".",".",".",".",".",".",".",9,11,13,".",13,".",13,".",13,".",11,".",11,".",9,".",8,".","_"],[".",".",".",9,11,".",11,".",11,".",11,".",11,13,".",".",".",11,".",11,".",11,".",11,".",9,".",9,".",".",".",".","_"],[10,8,10,".",".",10,".",10,".",10,".",10,".",".",".",".",".",".",".",".",".",".",".",".",".",".",".",".",".",8,".",5,"_"],[".",".",".",".",".",".",".",".",".",".",".",".",".",".",".",".",".",".",".",".",".",".",".",".",".",".",".",".",".",".",".",".","_"],[".",".",".",".",".",".",".",".",".",".",".",".",".",".",".",".",".",".",".",".",".",".",".",".",".",".",".",".",".",".",".",".","_"],[".",".",".",".",".",".",".",".",".",".",".",".",".",".",".",".",".",".",".",".",".",".",".",".",".",".",".",".",".",".",".",".","_"]],[[".",".",".",".",".",".",".",".",".",".",".",".",".",".",9,11,13,".",13,".",13,16,13,16,11,".",9,".",8,".",6,".","_"],[".",".",".",9,11,".",11,".",11,".",11,".",11,13,".",".",".",11,".",11,".",".",".",".",".",".",".",".",".",".",".",".","_"],[10,8,10,".",".",10,".",10,".",10,".",10,".",".",".",".",".",".",".",".",".",".",".",".",".",10,".",8,".",5,".",3,"_"],[".",".",".",".",".",".",".",".",".",".",".",".",".",".",".",".",".",".",".",".",".",".",".",".",".",".",".",".",".",".",".",".","_"],[".",".",".",".",".",".",".",".",".",".",".",".",".",".",".",".",".",".",".",".",".",".",".",".",".",".",".",".",".",".",".",".","_"],[".",".",".",".",".",".",".",".",".",".",".",".",".",".",".",".",".",".",".",".",".",".",".",".",".",".",".",".",".",".",".",".","_"]],[[".","_",".",".",".",".",".","_",".",".",".",".",".",".",".","_",".",".",".",".","_",".",".",".",".","_",".",".",".",".","_",".",".",".",".",".",".",".",".",".","_",".","_",".","_",".",".",".",".",".","."],[".","_",".",".",".",".",".","_",".",".",".",".",".",".",".","_",".",".",".",".","_",".",".",".",".","_",".",".",".",".","_",".",".",".",".",".",".",".",".",11,"_",".","_",".","_",".",".",".",".",".","."],[".","_",".",".",".",".",".","_",".",".",".",".",".",".",".","_",".",".",".",".","_",".",".",".",".","_",".",".",".",".","_",".",".",".",10,8,".",8,10,".","_",10,"_",8,"_",".",10,8,10,8,"."],[8,"_",8,".",8,8,8,"_",8,8,8,".",11,11,11,"_",8,8,8,8,"_",8,8,8,8,"_",10,10,10,10,"_",11,11,11,".",".",11,".",".",".","_",".","_",".","_",10,".",".",".",".",10],[".","_",".",8,".",".",".","_",".",".",".",8,".",".",".","_",".",".",".",".","_",".",".",".",".","_",".",".",".",".","_",".",".",".",".",".",".",".",".",".","_",".","_",".","_",".",".",".",".",".","."],[".","_",".",".",".",".",".","_",".",".",".",".",".",".",".","_",".",".",".",".","_",".",".",".",".","_",".",".",".",".","_",".",".",".",".",".",".",".",".",".","_",".","_",".","_",".",".",".",".",".","."]],[[".","_",".","_",".","_",".",".",".",".","_",".",".",".",".","_",".",".",".","_"],[".","_",".","_",".","_",".",".",".",".","_",".",".",".",".","_",".",".",".","_"],[".","_",".","_",8,"_",".",".",".",".","_",".",".",".",".","_",".",".",".","_"],[11,"_",10,"_",".","_",8,8,8,8,"_",8,8,8,8,"_",8,8,8,"_"],[".","_",".","_",".","_",".",".",".",".","_",".",".",".",".","_",".",".",".","_"],[".","_",".","_",".","_",".",".",".",".","_",".",".",".",".","_",".",".",".","_"]],[[".","_",".","_",".","_",".",".",".",".","_",".",".",".",".","_",".","_"],[".","_",".","_",".","_",".",".",".",".","_",".",".",".",".","_",".","_"],[".","_",".","_",10,"_",".",".",".",".","_",".",".",".",".","_",".","_"],[11,"_",10,"_",".","_",11,11,11,11,"_",10,10,10,10,"_",8,"_"],[".","_",".","_",".","_",".",".",".",".","_",".",".",".",".","_",".","_"],[".","_",".","_",".","_",".",".",".",".","_",".",".",".",".","_",".","_"]],[[".",".",".",".","_",".","_",".","_",".","_",".",".","_",".",".",".",".","_",".","_",".","_",".","_",".",".","_"],[".",".",11,9,"_",".","_",".","_",".","_",".",".","_",".",".",11,9,"_",".","_",".","_",".","_",".",".","_"],[".",10,".",".","_",10,"_",10,"_",10,"_",10,8,"_",".",10,".",".","_",10,"_",10,"_",10,"_",10,8,"_"],[8,".",".",".","_",".","_",".","_",".","_",".",".","_",8,".",".",".","_",".","_",".","_",".","_",".",".","_"],[".",".",".",".","_",".","_",".","_",".","_",".",".","_",".",".",".",".","_",".","_",".","_",".","_",".",".","_"],[".",".",".",".","_",".","_",".","_",".","_",".",".","_",".",".",".",".","_",".","_",".","_",".","_",".",".","_"]]],"numberofstrings":6,"notes":["E","B","G","D","A","E","B"],"capo":0,"stringnotes":["E4","B3","G3","D3","A2","E2"],"comments":["Stave 1:","Stave 2:","Stave 3:","Stave 4:","Stave 5:","Stave 6:","Stave 7:","Stave 8:","Stave 9:","Stave 10:","Stave 11:","Stave 12:","Stave 13:"],"timing":[["W","W","W","W","W","W","W","W","W","W","W","W","W","W","W","W","W","W","W","W","W","W","W","W","W","W","W","W","W","W","W"],["W","W","W","W","W","W","W","W","W","W","W","W","W","W","W","W","W","W","W","W","W","W","W","W","W","W","W","W","W","W","W"],["W","W","W","W","W","W","W","W","W","W","W","W","W","W","W","W","W","W","W","W","W","W","W","W","W","W","W","W","W"],["W","W","W","W","W","W","W","W","W","W","W","W","W","W","W","W","W","W","W","W","W","W","W","W"],["W","W","W","W","W","W","W","W","W","W","W","W","W","W","W","W","W","W","W","W","W","W","W","W","W"],["W","W","W","W","W","W","W","W","W","W","W","W","W","W","W","W","W","W","W","W","W","W","W","W","W","W","W","W","W","W"],["W","W","W","W","W","W","W","W","W","W","W","W","W","W","W","W","W","W","W","W","W","W","W","W","W","W","W","W","W","W"],["W","W","W","W","W","W","W","W","W","W","W","W","W","W","W","W","W","W","W","W","W","W","W","W","W","W","W","W","W","W","W","W","W","W"],["W","W","W","W","W","W","W","W","W","W","W","W","W","W","W","W","W","W","W","W","W","W","W","W","W","W","W","W","W","W","W","W","W"],["W","W","W","W","W","W","W","W","W","W","W","W","W","W","W","W","W","W","W","W","W","W","W","W","W","W","W","W","W","W","W","W","W","W","W","W","W","W","W","W","W","W","W","W","W","W","W","W","W","W","W","W","W","W","W"],["W","W","W","W","W","W","W","W","W","W","W","W","W","W","W","W","W","W","W","W"],["W","W","W","W","W","W","W","W","W","W","W","W","W","W","W","W","W","W"],["W","W","W","W","W","W","W","W","W","W","W","W","W","W","W","W","W","W","W","W","W","W","W","W","W","W","W","W"]],"timingvisible":false,"tabcounter":28,"stave":12,"totalstaves":13,"instrument":"6guitar","selectedtuning":"6_standard","version":"13"}

Member for

6 months 2 weeks
Picture
About Me

Just a content creator making tabs :)

 

Here's a link to my content; check it out! (Youtube for tab covers)

xXxGodseyxXx

Submitted by xXxGodseyxXx on Fri, 2021-06-04 14:45