R.A.M. - Friday Night Funkin' VS Hex mod

01234567891011121314151617181920212223
E
B
G
D
A
E
B
0 1 2 3 4 5 6 7 8 9 10 11 12 13 14 15 16 17 18 19 20 21 22 23
(/) Slide Up  (\) Slide Down  (h) Hammer On  (p) Pull Off  (b) Bend (r) Release (v) Vibrato

Call 1 (1):

E|-------------------------------------------
B|-------16----18-18----------16----18-18----
G|-15-18----18----------15-18----18----------
D|-------------------------------------------
A|-------------------------------------------
E|-------------------------------------------

Response 1 (2):

E|-------------------------------
B|-----4---6-6--------4---6-6----
G|-3-6---6--------3-6---6--------
D|-------------------------------
A|-------------------------------
E|-------------------------------

Call 2 (3):

E|-16-18-------------------16-18-------------------
B|-------18----18----18----------18----18----18----
G|----------15----15----------------15----15-------
D|-------------------------------------------------
A|-------------------------------------------------
E|-------------------------------------------------

Response 2 (4):

E|---6----------------6-------4-6----
B|-6---6---6---6----6---6---6--------
G|-------3---3------------3----------
D|-----------------------------------
A|-----------------------------------
E|-----------------------------------

Call 3 (5):

E|----16-------------------------------------------------------------------------18-16-------------------------
B|-18----18-16----------18----16----------------18-16----------------18----16----------18-16----16-------------
G|----------------15-------15----18-17-18-17-18----------------15----------------------------15----18----15----
D|-------------------------------------------------------18----------------------------------------------------
A|-------------------------------------------------------------------------------------------------------------
E|-------------------------------------------------------------------------------------------------------------

Response 3 (6):

E|---4----------------------------------------------------------6-4-----------------------
B|-6---6-4-----------6---4-----------6-4--------------6----4--------6-4---4---------------
G|------------3----3---3---6-5-6-5-6-------------3----------------------3---6-6-3----3----
D|------------------------------------------6---------------------------------------------
A|----------------------------------------------------------------------------------------
E|----------------------------------------------------------------------------------------

Harmony for Response 3  (7):

E|-18-16-------------------------
B|-------18-16----16-------------
G|-------------18----18----15----
D|-------------------------------
A|-------------------------------
E|-------------------------------

Call 4 (8):

E|-------------------------------------16-20----21-20-16-20-18-------18-------------------
B|-------------16-------16-18----16-18-------------------------18-21----21-18-16-18-16----
G|-18----17-18-------18----------------------------------------------------------------18-
D|----------------------------------------------------------------------------------------
A|----------------------------------------------------------------------------------------
E|----------------------------------------------------------------------------------------

Call 4 (9):

E|-------------------------16-18-------------------
B|----18-18----18-18-------------18----18----18----
G|-18-------18-------15-18----------15----15-------
D|-------------------------------------------------
A|-------------------------------------------------
E|-------------------------------------------------

Response 4 (10):

E|----------------------------4-8----9-8-4-8-6-----6-------------
B|----------4------4-6----4-6------------------6-9---9-6-4-6-4---
G|-6----5-6------6---------------------------------------------6-
D|---------------------------------------------------------------
A|---------------------------------------------------------------
E|---------------------------------------------------------------

Response 4 (11):

E|------------------------------
B|---6-6---6-6------------------
G|-6-----6-----3-6-3-3-3-1-3----
D|------------------------------
A|------------------------------
E|------------------------------

Harmony for Response 4 (12):

E|-------------------
B|-------------------
G|-15-15-15-13-15----
D|-------------------
A|-------------------
E|-------------------

Call 5 (13):

E|----------------------------
B|-18-16----16-18-16----16----
G|-------18----------18-------
D|----------------------------
A|----------------------------
E|----------------------------

Response 5 (14):

E|--------------------
B|-6-4---4-6-4---4----
G|-----6-------6------
D|--------------------
A|--------------------
E|--------------------

Call 6 (15):

E|-------18----19-16-18----
B|----18----18-------------
G|-15----------------------
D|-------------------------
A|-------------------------
E|-------------------------

Response 6 (16):

E|-----6---7-4-6----
B|---6---6----------
G|-3----------------
D|------------------
A|------------------
E|------------------

Call 7 (17):

E|-18-16-------------------
B|-------18-16-------------
G|-------------18-15-18----
D|-------------------------
A|-------------------------
E|-------------------------

Response 7 (18):

E|-6-4--------------
B|-----6-4----------
G|---------6-3-6----
D|------------------
A|------------------
E|------------------

Call 8 (19):

E|-------------------18----
B|----------------18-------
G|-15----18-15-18----------
D|-------------------------
A|-------------------------
E|-------------------------

Response 8 (20):

E|----------------6----6-
B|--------------6--------
G|-3----3-6-3-6----------
D|-----------------------
A|-----------------------
E|-----------------------

							http://www.guitartabcreator.com
Chords

Instruments
{"strings":[[[".",".",".",".",".",".","_",".",".",".",".",".",".","_"],[".",".",16,".",18,18,"_",".",".",16,".",18,18,"_"],[15,18,".",18,".",".","_",15,18,".",18,".",".","_"],[".",".",".",".",".",".","_",".",".",".",".",".",".","_"],[".",".",".",".",".",".","_",".",".",".",".",".",".","_"],[".",".",".",".",".",".","_",".",".",".",".",".",".","_"]],[[".",".",".",".",".",".","_",".",".",".",".",".",".","_"],[".",".",4,".",6,6,"_",".",".",4,".",6,6,"_"],[3,6,".",6,".",".","_",3,6,".",6,".",".","_"],[".",".",".",".",".",".","_",".",".",".",".",".",".","_"],[".",".",".",".",".",".","_",".",".",".",".",".",".","_"],[".",".",".",".",".",".","_",".",".",".",".",".",".","_"]],[[16,18,".",".",".",".",".","_",16,18,".",".",".",".",".","_"],[".",".",18,".",18,".",18,"_",".",".",18,".",18,".",18,"_"],[".",".",".",15,".",15,".","_",".",".",".",15,".",15,".","_"],[".",".",".",".",".",".",".","_",".",".",".",".",".",".",".","_"],[".",".",".",".",".",".",".","_",".",".",".",".",".",".",".","_"],[".",".",".",".",".",".",".","_",".",".",".",".",".",".",".","_"]],[[".",6,".",".",".",".",".","_",".",6,".",".",".",4,6,"_"],[6,".",6,".",6,".",6,"_",6,".",6,".",6,".",".","_"],[".",".",".",3,".",3,".","_",".",".",".",3,".",".",".","_"],[".",".",".",".",".",".",".","_",".",".",".",".",".",".",".","_"],[".",".",".",".",".",".",".","_",".",".",".",".",".",".",".","_"],[".",".",".",".",".",".",".","_",".",".",".",".",".",".",".","_"]],[[".",16,".",".","_",".","_",".",".",".",".",".",".",".",".",".",".","_",".","_",".","_",".","_",".","_",18,16,".",".",".",".",".","_",".","_"],[18,".",18,16,"_",".","_",18,".",16,".",".",".",".",".",18,16,"_",".","_",".","_",18,"_",16,"_",".",".",18,16,".",16,".","_",".","_"],[".",".",".",".","_",15,"_",".",15,".",18,17,18,17,18,".",".","_",".","_",15,"_",".","_",".","_",".",".",".",".",15,".",18,"_",15,"_"],[".",".",".",".","_",".","_",".",".",".",".",".",".",".",".",".",".","_",18,"_",".","_",".","_",".","_",".",".",".",".",".",".",".","_",".","_"],[".",".",".",".","_",".","_",".",".",".",".",".",".",".",".",".",".","_",".","_",".","_",".","_",".","_",".",".",".",".",".",".",".","_",".","_"],[".",".",".",".","_",".","_",".",".",".",".",".",".",".",".",".",".","_",".","_",".","_",".","_",".","_",".",".",".",".",".",".",".","_",".","_"]],[[".",4,".",".","_",".","_",".",".",".",".",".",".",".",".",".",".",".","_",".","_",".","_",".","_",".","_",6,4,".",".",".",".",".",".",".","_",".","_"],[6,".",6,4,"_",".","_",".",6,".",4,".",".",".",".",".",6,4,"_",".","_",".","_",6,"_",4,"_",".",".",6,4,".",4,".",".",".","_",".","_"],[".",".",".",".","_",3,"_",3,".",3,".",6,5,6,5,6,".",".","_",".","_",3,"_",".","_",".","_",".",".",".",".",3,".",6,6,3,"_",3,"_"],[".",".",".",".","_",".","_",".",".",".",".",".",".",".",".",".",".",".","_",6,"_",".","_",".","_",".","_",".",".",".",".",".",".",".",".",".","_",".","_"],[".",".",".",".","_",".","_",".",".",".",".",".",".",".",".",".",".",".","_",".","_",".","_",".","_",".","_",".",".",".",".",".",".",".",".",".","_",".","_"],[".",".",".",".","_",".","_",".",".",".",".",".",".",".",".",".",".",".","_",".","_",".","_",".","_",".","_",".",".",".",".",".",".",".",".",".","_",".","_"]],[[18,16,".",".",".",".",".","_",".","_"],[".",".",18,16,".",16,".","_",".","_"],[".",".",".",".",18,".",18,"_",15,"_"],[".",".",".",".",".",".",".","_",".","_"],[".",".",".",".",".",".",".","_",".","_"],[".",".",".",".",".",".",".","_",".","_"]],[[".","_",".",".",".","_",".",".",".","_",".",".",16,20,"_",21,20,16,20,18,".",".",18,".",".",".",".",".","."],[".","_",".",".",16,"_",".",16,18,"_",16,18,".",".","_",".",".",".",".",".",18,21,".",21,18,16,18,16,"."],[18,"_",17,18,".","_",18,".",".","_",".",".",".",".","_",".",".",".",".",".",".",".",".",".",".",".",".",".",18],[".","_",".",".",".","_",".",".",".","_",".",".",".",".","_",".",".",".",".",".",".",".",".",".",".",".",".",".","."],[".","_",".",".",".","_",".",".",".","_",".",".",".",".","_",".",".",".",".",".",".",".",".",".",".",".",".",".","."],[".","_",".",".",".","_",".",".",".","_",".",".",".",".","_",".",".",".",".",".",".",".",".",".",".",".",".",".","."]],[[".",".",".",".",".",".",".",".",16,18,".",".",".",".",".","_"],[".",18,18,".",18,18,".",".",".",".",18,".",18,".",18,"_"],[18,".",".",18,".",".",15,18,".",".",".",15,".",15,".","_"],[".",".",".",".",".",".",".",".",".",".",".",".",".",".",".","_"],[".",".",".",".",".",".",".",".",".",".",".",".",".",".",".","_"],[".",".",".",".",".",".",".",".",".",".",".",".",".",".",".","_"]],[[".","_",".",".",".","_",".",".",".","_",".",".",4,8,"_",9,8,4,8,6,".",".",6,".",".",".",".",".","."],[".","_",".",".",4,"_",".",4,6,"_",4,6,".",".","_",".",".",".",".",".",6,9,".",9,6,4,6,4,"."],[6,"_",5,6,".","_",6,".",".","_",".",".",".",".","_",".",".",".",".",".",".",".",".",".",".",".",".",".",6],[".","_",".",".",".","_",".",".",".","_",".",".",".",".","_",".",".",".",".",".",".",".",".",".",".",".",".",".","."],[".","_",".",".",".","_",".",".",".","_",".",".",".",".","_",".",".",".",".",".",".",".",".",".",".",".",".",".","."],[".","_",".",".",".","_",".",".",".","_",".",".",".",".","_",".",".",".",".",".",".",".",".",".",".",".",".",".","."]],[[".",".",".",".",".",".",".",".",".",".",".",".",".","_"],[".",6,6,".",6,6,".",".",".",".",".",".",".","_"],[6,".",".",6,".",".",3,6,3,3,3,1,3,"_"],[".",".",".",".",".",".",".",".",".",".",".",".",".","_"],[".",".",".",".",".",".",".",".",".",".",".",".",".","_"],[".",".",".",".",".",".",".",".",".",".",".",".",".","_"]],[[".",".",".",".",".","_"],[".",".",".",".",".","_"],[15,15,15,13,15,"_"],[".",".",".",".",".","_"],[".",".",".",".",".","_"],[".",".",".",".",".","_"]],[[".",".",".",".",".",".",".",".","_"],[18,16,".",16,18,16,".",16,"_"],[".",".",18,".",".",".",18,".","_"],[".",".",".",".",".",".",".",".","_"],[".",".",".",".",".",".",".",".","_"],[".",".",".",".",".",".",".",".","_"]],[[".",".",".",".",".",".",".",".","_"],[6,4,".",4,6,4,".",4,"_"],[".",".",6,".",".",".",6,".","_"],[".",".",".",".",".",".",".",".","_"],[".",".",".",".",".",".",".",".","_"],[".",".",".",".",".",".",".",".","_"]],[[".",".",18,".",19,16,18,"_"],[".",18,".",18,".",".",".","_"],[15,".",".",".",".",".",".","_"],[".",".",".",".",".",".",".","_"],[".",".",".",".",".",".",".","_"],[".",".",".",".",".",".",".","_"]],[[".",".",6,".",7,4,6,"_"],[".",6,".",6,".",".",".","_"],[3,".",".",".",".",".",".","_"],[".",".",".",".",".",".",".","_"],[".",".",".",".",".",".",".","_"],[".",".",".",".",".",".",".","_"]],[[18,16,".",".",".",".",".","_"],[".",".",18,16,".",".",".","_"],[".",".",".",".",18,15,18,"_"],[".",".",".",".",".",".",".","_"],[".",".",".",".",".",".",".","_"],[".",".",".",".",".",".",".","_"]],[[6,4,".",".",".",".",".","_"],[".",".",6,4,".",".",".","_"],[".",".",".",".",6,3,6,"_"],[".",".",".",".",".",".",".","_"],[".",".",".",".",".",".",".","_"],[".",".",".",".",".",".",".","_"]],[[".","_",".",".",".",".",18,"_"],[".","_",".",".",".",18,".","_"],[15,"_",18,15,18,".",".","_"],[".","_",".",".",".",".",".","_"],[".","_",".",".",".",".",".","_"],[".","_",".",".",".",".",".","_"]],[[".","_",".",".",".",".",".",6,"_",6],[".","_",".",".",".",".",6,".","_","."],[3,"_",3,6,3,6,".",".","_","."],[".","_",".",".",".",".",".",".","_","."],[".","_",".",".",".",".",".",".","_","."],[".","_",".",".",".",".",".",".","_","."]]],"numberofstrings":6,"notes":["E","B","G","D","A","E","B"],"capo":0,"stringnotes":["E4","B3","G3","D3","A2","E2"],"comments":["Call 1 (1):","Response 1 (2):","Call 2 (3):","Response 2 (4):","Call 3 (5):","Response 3 (6):","Harmony for Response 3 (7):","Call 4 (8):","Call 4 (9):","Response 4 (10):","Response 4 (11):","Harmony for Response 4 (12):","Call 5 (13):","Response 5 (14):","Call 6 (15):","Response 6 (16):","Call 7 (17):","Response 7 (18):","Call 8 (19):","Response 8 (20):"],"timing":[["W","W","W","W","W","W",null,"W","W","W","W","W","W"],["W","W","W","W","W","W",null,"W","W","W","W","W","W"],["W","W","W","W","W","W","W",null,"W","W","W","W","W","W","W"],["W","W","W","W","W","W","W",null,"W","W","W","W","W","W","W"],["W","W","W","W",null,"W",null,"W","W","W","W","W","W","W","W","W","W",null,"W",null,"W",null,"W","W","W","W","W","W","W","W","W","W","W","W","W","W"],["W","W","W","W",null,"W",null,"W","W","W","W","W","W","W","W","W","W","W",null,"W",null,"W",null,"W",null,"W",null,"W","W","W","W","W","W","W","W","W","W","W","W"],["W","W","W","W","W","W","W",null,"W"],["W","W","W","W","W","W","W","W","W","W","W","W","W","W",null,"W","W","W","W","W","W","W","W","W","W","W","W","W","W"],["W","W","W","W","W","W","W","W","W","W","W","W","W","W","W"],["W",null,"W","W","W",null,"W","W","W",null,"W","W","W","W",null,"W","W","W","W","W","W","W","W","W","W","W","W","W","W"],["W","W","W","W","W","W","W","W","W","W","W","W","W"],["W","W","W","W","W"],["W","W","W","W","W","W","W","W"],["W","W","W","W","W","W","W","W"],["W","W","W","W","W","W","W"],["W","W","W","W","W","W","W"],["W","W","W","W","W","W","W"],["W","W","W","W","W","W","W"],["W",null,"W","W","W","W","W"],["W",null,"W","W","W","W","W","W",null,"W"]],"timingvisible":false,"tabcounter":39,"stave":5,"totalstaves":20,"instrument":"6guitar","selectedtuning":"6_standard","version":"13"}

Member for

2 months 2 weeks
Picture
About Me

Just a content creator making tabs :)

 

Here's a link to my content; check it out! (Youtube for tab covers)

xXxGodseyxXx

Submitted by xXxGodseyxXx on Fri, 2021-02-19 17:01