Overhead - Friday Night Funkin' VS Whitty Mod

01234567891011121314151617181920212223
E
B
G
D
A
E
B
0 1 2 3 4 5 6 7 8 9 10 11 12 13 14 15 16 17 18 19 20 21 22 23
(/) Slide Up  (\) Slide Down  (h) Hammer On  (p) Pull Off  (b) Bend (r) Release (v) Vibrato

Call 1 (1):

E|-------------------------------------------------------------------------------
B|-------------------------------------------------------------------------------
G|------------------------------------------------------------------------5-4----
D|-7----7-7-7-7---7----7----7----7-7---7---5-5-7-7-7---7----7----7----7-7--------
A|--------------5--------------------5---8-----------5---------------------------
E|-------------------------------------------------------------------------------

Response 1 (2):

E|--------------------------------------------------------------------------------------------10-10----
B|-10----10-10-10-10---10----10----10----10-10---10-10-8-8-10-10-10---10----10----10----10-10----------
G|-------------------7-------------------------7--------------------7----------------------------------
D|-----------------------------------------------------------------------------------------------------
A|-----------------------------------------------------------------------------------------------------
E|-----------------------------------------------------------------------------------------------------

Call 2 (3):

E|------------------------------------------------
B|------------------------------------------------
G|------------------------------------------------
D|------------------------------------------------
A|-5----5-5----5-5-5-5----5----5----5----5-5-5----
E|------------------------------------------------

Response 2 (4):

E|------------------------------------------------------------------
B|-10----10-10----10-10-10-10----10----10-10----8-10-10----10-10----
G|------------------------------------------------------------------
D|------------------------------------------------------------------
A|------------------------------------------------------------------
E|------------------------------------------------------------------

Call 3 (5):

E|---------------------------------------------------
B|---------------------------------------------------
G|---------------------------------------------------
D|---------------------------------------------------
A|-5----5-5----5-5-5-5----5----5-5----5-5-5-5-5-5----
E|---------------------------------------------------

Response 3 (6):

E|------------------------------------------------------------------------
B|-10----10-10----10-10-10-10----10----10-10-10-8-10-10-10----10-10-10----
G|------------------------------------------------------------------------
D|------------------------------------------------------------------------
A|------------------------------------------------------------------------
E|------------------------------------------------------------------------

Call 4 (7):

E|-----------------------------------------------
B|-----------------------------------------------
G|---5-------------------------------------------
D|-7---7---7---7----7----7-7----7-7-7-5-7-7-7----
A|-------5---5-----------------------------------
E|-----------------------------------------------

Response 4 (8):

E|-------8---------------------------------------
B|-10------8-10-10---10-10----8-8-10-10-10-10----
G|-----------------7-----------------------------
D|-----------------------------------------------
A|-----------------------------------------------
E|-----------------------------------------------

Call 5 (9):

E|--------------------------------------------
B|--------------------------------------------
G|-------5-5----------------------------------
D|-7-5---------7---------7---7-7-7-5-7-7-7----
A|-----5-----5---8-5-0h5---0------------------
E|--------------------------------------------

Response 5 (10):

E|--------------------------------------------------
B|-10----10-10---10-10----10----10-10---10-10-10----
G|-------------7----------------------7-------------
D|--------------------------------------------------
A|--------------------------------------------------
E|--------------------------------------------------

Call 6 (11):

E|---------------------------------------
B|---------------------------------------
G|---------------------------------------
D|-5----------5-7----5-5-5-5------5-7----
A|------8-8-8-------------------8--------
E|---------------------------------------

Response 6 (12):

E|----------------------------------------------
B|-8-------------8-10----8-8----8-------8-10----
G|------10-10-10---------------------10---------
D|----------------------------------------------
A|----------------------------------------------
E|----------------------------------------------

Call 7 (13):

E|--------------------------------------
B|--------------------------------------
G|---7---------------7------------------
D|-----7-5-5-5-7-7-----7-5-5-5-5-7-7----
A|-5---------------5--------------------
E|--------------------------------------

Response 7 (14):

E|---10------------------10----------8----------
B|------10-8-8-8-10-10------10-8-8-8---10-10----
G|-7-------------------7------------------------
D|----------------------------------------------
A|----------------------------------------------
E|----------------------------------------------

Call 8 (15):

E|-------------------------------------------
B|-------------------------------------------
G|-------------------------------------------
D|-5----------5-7----5-5-5-5------------7----
A|------8-8-8-------------------8-5-5-5------
E|-------------------------------------------

Response 8 (16):

E|---------------------------------------8-------
B|-8-------------8-10----8-8----8------8---10----
G|------10-10-10------------------10-7-----------
D|-----------------------------------------------
A|-----------------------------------------------
E|-----------------------------------------------

Call 9 (17):

E|------------------------------------
B|------------------------------------
G|-7-7---------------7---------7------
D|-----7-5-7-5-7-7-----7-5-7-5---7----
A|-----------------5------------------
E|------------------------------------

Response 9 (18):

E|-10-10-10-10-------------------10------8-8-10-10----
B|-------------10-8-10-8-10-10------10-8--------------
G|-----------------------------7----------------------
D|----------------------------------------------------
A|----------------------------------------------------
E|----------------------------------------------------

Call 10 (19):

E|--------------------------------------------------------------------------------------
B|--------------------------------------------------------------------------------------
G|-------------------------------------------------5------------------------------------
D|-5-7-5-7-7----5-5-5-5\0----0-0-0-5-5-7---7---7-7---5-5-5\0----0-0-0-5-5-7-----7-----7-
A|---------------------------------------5---5------------------------------5-5---5-5---
E|--------------------------------------------------------------------------------------

Call 10 (20):

E|--------------------------------------------------------------------------------------
B|--------------------------------------------------------------------------------------
G|-----------7------7-------------------------------------5-5---------------------------
D|-5----7---------7------7-5-5\0----0-0-5-5-5-5-------7-7-----5-5-5\0----0-0-0-5-5-7----
A|----------------------------------------------8-5-8-----------------------------------
E|--------------------------------------------------------------------------------------

Background during Call 10 (21):

E|----------------------------------------------
B|----8----8-10----8-10----8----8-10----8-10----
G|----------------------------------------------
D|----------------------------------------------
A|----------------------------------------------
E|----------------------------------------------

Response 10 (22):

E|-10-8----------------------------------------------------8-------------------------------------------------------
B|------10-8-10-10-8-8----8\3----------8-8-10---10---10-10---8----8\3----8-8-8----8-8----10----10-10----10---10-10-
G|-------------------------------7-7-7--------7----7-------------------------------------------------------7-------
D|-----------------------------------------------------------------------------------------------------------------
A|-----------------------------------------------------------------------------------------------------------------
E|-----------------------------------------------------------------------------------------------------------------

Response 10 (23):

E|-10-8-----------------10----8-10-10-10---------------8-8-------------------------------------------
B|------8-10-10----8-10----10--------------------10-10-----8----8\3----------8-8-10-----10---10------
G|--------------10-----------------------10-7-10-----------------------7-7-7--------7-7----7----7----
D|---------------------------------------------------------------------------------------------------
A|---------------------------------------------------------------------------------------------------
E|---------------------------------------------------------------------------------------------------

Background during Response 10 (24):

E|------------------------------------------
B|------------------------------------------
G|------------------------------------------
D|----5----5-7----5-7----5----5-7----5-7----
A|------------------------------------------
E|------------------------------------------

Call 11 (25):

E|-------------------------------------------------------------------------
B|-------------------------------------------------------------------------
G|-------------------------------------------------------------------------
D|--------------------------------------------------------------------7----
A|-5-8-5---5---5----5-8-10-5---8-8---5----5-8-5---5---5-8-5-5-5-----5------
E|-------6---6---------------6-----6------------6---6-----------6-6--------

Response 11 (26):

E|------------------------------------------------------------------------------8------------
B|-10----10-10---10-10----10----10-10---10-10-10-8-10-10---10-10----10----10-10---10-8-10----
G|-------------7----------------------7------------------7-----------------------------------
D|-------------------------------------------------------------------------------------------
A|-------------------------------------------------------------------------------------------
E|-------------------------------------------------------------------------------------------

Response 12 (27):

E|-10-8-------------------------------------------------8------------------------------------
B|------10-8-10-10-8-8----8\3----10-8-8-10---10---10-10---8----8\3-8----8-8-10-10-10---10-10-
G|-----------------------------------------7----7------------------------------------7-------
D|-------------------------------------------------------------------------------------------
A|-------------------------------------------------------------------------------------------
E|-------------------------------------------------------------------------------------------

Response 12 (28):

E|-10-8-----------------10-10-10-10-10-10---------------8-8-----------------------------------------------------
B|------8-10-10----8-10---------------------------10-10-----8----8\3----------8-8-10-----10---10------8----8-10-
G|--------------10------------------------10-7-10-----------------------7-7-7--------7-7----7----7--------------
D|--------------------------------------------------------------------------------------------------------------
A|--------------------------------------------------------------------------------------------------------------
E|--------------------------------------------------------------------------------------------------------------

Harmony for Response 12 (29):

E|---------------------------------------------------------------------------------
B|---------------------------------------------------------------------------------
G|-7-5-------------7-5-----7-7-----------5-5---------------------------------------
D|-----5-7-7---5-7-----7-7-----------7-7-----5-5-5\0----0-0-0-5-5-7-----7---7------
A|-----------8-----------------8-5-8--------------------------------5-5---5---5----
E|---------------------------------------------------------------------------------

							http://www.guitartabcreator.com
Chords

Instruments
{"strings":[[[".","_",".",".",".",".",".",".","_",".","_",".","_",".",".",".",".",".",".",".",".",".",".",".",".","_",".","_",".","_",".",".",".",".","_"],[".","_",".",".",".",".",".",".","_",".","_",".","_",".",".",".",".",".",".",".",".",".",".",".",".","_",".","_",".","_",".",".",".",".","_"],[".","_",".",".",".",".",".",".","_",".","_",".","_",".",".",".",".",".",".",".",".",".",".",".",".","_",".","_",".","_",".",".",5,4,"_"],[7,"_",7,7,7,7,".",7,"_",7,"_",7,"_",7,7,".",7,".",5,5,7,7,7,".",7,"_",7,"_",7,"_",7,7,".",".","_"],[".","_",".",".",".",".",5,".","_",".","_",".","_",".",".",5,".",8,".",".",".",".",".",5,".","_",".","_",".","_",".",".",".",".","_"],[".","_",".",".",".",".",".",".","_",".","_",".","_",".",".",".",".",".",".",".",".",".",".",".",".","_",".","_",".","_",".",".",".",".","_"]],[[".","_",".",".",".",".",".",".","_",".","_",".","_",".",".",".",".",".",".",".",".",".",".",".",".","_",".","_",".","_",".",".",10,10,"_"],[10,"_",10,10,10,10,".",10,"_",10,"_",10,"_",10,10,".",10,10,8,8,10,10,10,".",10,"_",10,"_",10,"_",10,10,".",".","_"],[".","_",".",".",".",".",7,".","_",".","_",".","_",".",".",7,".",".",".",".",".",".",".",7,".","_",".","_",".","_",".",".",".",".","_"],[".","_",".",".",".",".",".",".","_",".","_",".","_",".",".",".",".",".",".",".",".",".",".",".",".","_",".","_",".","_",".",".",".",".","_"],[".","_",".",".",".",".",".",".","_",".","_",".","_",".",".",".",".",".",".",".",".",".",".",".",".","_",".","_",".","_",".",".",".",".","_"],[".","_",".",".",".",".",".",".","_",".","_",".","_",".",".",".",".",".",".",".",".",".",".",".",".","_",".","_",".","_",".",".",".",".","_"]],[[".","_",".",".","_",".",".",".",".","_",".","_",".","_",".","_",".",".",".","_"],[".","_",".",".","_",".",".",".",".","_",".","_",".","_",".","_",".",".",".","_"],[".","_",".",".","_",".",".",".",".","_",".","_",".","_",".","_",".",".",".","_"],[".","_",".",".","_",".",".",".",".","_",".","_",".","_",".","_",".",".",".","_"],[5,"_",5,5,"_",5,5,5,5,"_",5,"_",5,"_",5,"_",5,5,5,"_"],[".","_",".",".","_",".",".",".",".","_",".","_",".","_",".","_",".",".",".","_"]],[[".","_",".",".","_",".",".",".",".","_",".","_",".",".","_",".",".",".","_",".",".","_"],[10,"_",10,10,"_",10,10,10,10,"_",10,"_",10,10,"_",8,10,10,"_",10,10,"_"],[".","_",".",".","_",".",".",".",".","_",".","_",".",".","_",".",".",".","_",".",".","_"],[".","_",".",".","_",".",".",".",".","_",".","_",".",".","_",".",".",".","_",".",".","_"],[".","_",".",".","_",".",".",".",".","_",".","_",".",".","_",".",".",".","_",".",".","_"],[".","_",".",".","_",".",".",".",".","_",".","_",".",".","_",".",".",".","_",".",".","_"]],[[".","_",".",".","_",".",".",".",".","_",".","_",".",".","_",".",".",".",".",".",".","_"],[".","_",".",".","_",".",".",".",".","_",".","_",".",".","_",".",".",".",".",".",".","_"],[".","_",".",".","_",".",".",".",".","_",".","_",".",".","_",".",".",".",".",".",".","_"],[".","_",".",".","_",".",".",".",".","_",".","_",".",".","_",".",".",".",".",".",".","_"],[5,"_",5,5,"_",5,5,5,5,"_",5,"_",5,5,"_",5,5,5,5,5,5,"_"],[".","_",".",".","_",".",".",".",".","_",".","_",".",".","_",".",".",".",".",".",".","_"]],[[".","_",".",".","_",".",".",".",".","_",".","_",".",".",".",".",".",".",".","_",".",".",".","_"],[10,"_",10,10,"_",10,10,10,10,"_",10,"_",10,10,10,8,10,10,10,"_",10,10,10,"_"],[".","_",".",".","_",".",".",".",".","_",".","_",".",".",".",".",".",".",".","_",".",".",".","_"],[".","_",".",".","_",".",".",".",".","_",".","_",".",".",".",".",".",".",".","_",".",".",".","_"],[".","_",".",".","_",".",".",".",".","_",".","_",".",".",".",".",".",".",".","_",".",".",".","_"],[".","_",".",".","_",".",".",".",".","_",".","_",".",".",".",".",".",".",".","_",".",".",".","_"]],[[".",".",".",".",".",".",".","_",".","_",".",".","_",".",".",".",".",".",".",".","_"],[".",".",".",".",".",".",".","_",".","_",".",".","_",".",".",".",".",".",".",".","_"],[".",5,".",".",".",".",".","_",".","_",".",".","_",".",".",".",".",".",".",".","_"],[7,".",7,".",7,".",7,"_",7,"_",7,7,"_",7,7,7,5,7,7,7,"_"],[".",".",".",5,".",5,".","_",".","_",".",".","_",".",".",".",".",".",".",".","_"],[".",".",".",".",".",".",".","_",".","_",".",".","_",".",".",".",".",".",".",".","_"]],[[".","_",8,".",".",".",".",".",".","_",".",".",".",".",".",".","_"],[10,"_",".",8,10,10,".",10,10,"_",8,8,10,10,10,10,"_"],[".","_",".",".",".",".",7,".",".","_",".",".",".",".",".",".","_"],[".","_",".",".",".",".",".",".",".","_",".",".",".",".",".",".","_"],[".","_",".",".",".",".",".",".",".","_",".",".",".",".",".",".","_"],[".","_",".",".",".",".",".",".",".","_",".",".",".",".",".",".","_"]],[[".",".",".",".",".",".",".",".",".",".",".",".",".",".",".",".",".",".",".",".",".","_"],[".",".",".",".",".",".",".",".",".",".",".",".",".",".",".",".",".",".",".",".",".","_"],[".",".",".",5,5,".",".",".",".",".",".",".",".",".",".",".",".",".",".",".",".","_"],[7,5,".",".",".",".",7,".",".",".",".",".",7,".",7,7,7,5,7,7,7,"_"],[".",".",5,".",".",5,".",8,5,0,"h",5,".",0,".",".",".",".",".",".",".","_"],[".",".",".",".",".",".",".",".",".",".",".",".",".",".",".",".",".",".",".",".",".","_"]],[[".","_",".",".",".",".",".","_",".","_",".",".",".",".",".",".","_"],[10,"_",10,10,".",10,10,"_",10,"_",10,10,".",10,10,10,"_"],[".","_",".",".",7,".",".","_",".","_",".",".",7,".",".",".","_"],[".","_",".",".",".",".",".","_",".","_",".",".",".",".",".",".","_"],[".","_",".",".",".",".",".","_",".","_",".",".",".",".",".",".","_"],[".","_",".",".",".",".",".","_",".","_",".",".",".",".",".",".","_"]],[[".","_",".",".",".",".",".","_",".",".",".",".","_",".",".",".","_"],[".","_",".",".",".",".",".","_",".",".",".",".","_",".",".",".","_"],[".","_",".",".",".",".",".","_",".",".",".",".","_",".",".",".","_"],[5,"_",".",".",".",5,7,"_",5,5,5,5,"_",".",5,7,"_"],[".","_",8,8,8,".",".","_",".",".",".",".","_",8,".",".","_"],[".","_",".",".",".",".",".","_",".",".",".",".","_",".",".",".","_"]],[[".","_",".",".",".",".",".","_",".",".","_",".","_",".",".",".","_"],[8,"_",".",".",".",8,10,"_",8,8,"_",8,"_",".",8,10,"_"],[".","_",10,10,10,".",".","_",".",".","_",".","_",10,".",".","_"],[".","_",".",".",".",".",".","_",".",".","_",".","_",".",".",".","_"],[".","_",".",".",".",".",".","_",".",".","_",".","_",".",".",".","_"],[".","_",".",".",".",".",".","_",".",".","_",".","_",".",".",".","_"]],[[".",".",".",".",".",".",".",".",".",".",".",".",".",".",".",".",".","_"],[".",".",".",".",".",".",".",".",".",".",".",".",".",".",".",".",".","_"],[".",7,".",".",".",".",".",".",".",7,".",".",".",".",".",".",".","_"],[".",".",7,5,5,5,7,7,".",".",7,5,5,5,5,7,7,"_"],[5,".",".",".",".",".",".",".",5,".",".",".",".",".",".",".",".","_"],[".",".",".",".",".",".",".",".",".",".",".",".",".",".",".",".",".","_"]],[[".",10,".",".",".",".",".",".",".",10,".",".",".",".",8,".",".","_"],[".",".",10,8,8,8,10,10,".",".",10,8,8,8,".",10,10,"_"],[7,".",".",".",".",".",".",".",7,".",".",".",".",".",".",".",".","_"],[".",".",".",".",".",".",".",".",".",".",".",".",".",".",".",".",".","_"],[".",".",".",".",".",".",".",".",".",".",".",".",".",".",".",".",".","_"],[".",".",".",".",".",".",".",".",".",".",".",".",".",".",".",".",".","_"]],[[".","_",".",".",".",".",".","_",".",".",".",".","_",".",".",".",".",".","_"],[".","_",".",".",".",".",".","_",".",".",".",".","_",".",".",".",".",".","_"],[".","_",".",".",".",".",".","_",".",".",".",".","_",".",".",".",".",".","_"],[5,"_",".",".",".",5,7,"_",5,5,5,5,"_",".",".",".",".",7,"_"],[".","_",8,8,8,".",".","_",".",".",".",".","_",8,5,5,5,".","_"],[".","_",".",".",".",".",".","_",".",".",".",".","_",".",".",".",".",".","_"]],[[".","_",".",".",".",".",".","_",".",".","_",".",".",".",".",8,".","_"],[8,"_",".",".",".",8,10,"_",8,8,"_",8,".",".",8,".",10,"_"],[".","_",10,10,10,".",".","_",".",".","_",".",10,7,".",".",".","_"],[".","_",".",".",".",".",".","_",".",".","_",".",".",".",".",".",".","_"],[".","_",".",".",".",".",".","_",".",".","_",".",".",".",".",".",".","_"],[".","_",".",".",".",".",".","_",".",".","_",".",".",".",".",".",".","_"]],[[".",".",".",".",".",".",".",".",".",".",".",".",".",".",".",".","_"],[".",".",".",".",".",".",".",".",".",".",".",".",".",".",".",".","_"],[7,7,".",".",".",".",".",".",".",7,".",".",".",".",7,".","_"],[".",".",7,5,7,5,7,7,".",".",7,5,7,5,".",7,"_"],[".",".",".",".",".",".",".",".",5,".",".",".",".",".",".",".","_"],[".",".",".",".",".",".",".",".",".",".",".",".",".",".",".",".","_"]],[[10,10,10,10,".",".",".",".",".",".",".",10,".",".",8,8,10,10,"_"],[".",".",".",".",10,8,10,8,10,10,".",".",10,8,".",".",".",".","_"],[".",".",".",".",".",".",".",".",".",".",7,".",".",".",".",".",".",".","_"],[".",".",".",".",".",".",".",".",".",".",".",".",".",".",".",".",".",".","_"],[".",".",".",".",".",".",".",".",".",".",".",".",".",".",".",".",".",".","_"],[".",".",".",".",".",".",".",".",".",".",".",".",".",".",".",".",".",".","_"]],[[".",".",".",".",".","_",".",".",".",".",".",".","_",".",".",".",".",".",".",".",".",".",".",".",".",".",".",".",".",".","_",".",".",".",".",".",".",".",".",".",".",".","."],[".",".",".",".",".","_",".",".",".",".",".",".","_",".",".",".",".",".",".",".",".",".",".",".",".",".",".",".",".",".","_",".",".",".",".",".",".",".",".",".",".",".","."],[".",".",".",".",".","_",".",".",".",".",".",".","_",".",".",".",".",".",".",".",".",".",".",".",5,".",".",".",".",".","_",".",".",".",".",".",".",".",".",".",".",".","."],[5,7,5,7,7,"_",5,5,5,5,"\\",0,"_",0,0,0,5,5,7,".",7,".",7,7,".",5,5,5,"\\",0,"_",0,0,0,5,5,7,".",".",7,".",".",7],[".",".",".",".",".","_",".",".",".",".",".",".","_",".",".",".",".",".",".",5,".",5,".",".",".",".",".",".",".",".","_",".",".",".",".",".",".",5,5,".",5,5,"."],[".",".",".",".",".","_",".",".",".",".",".",".","_",".",".",".",".",".",".",".",".",".",".",".",".",".",".",".",".",".","_",".",".",".",".",".",".",".",".",".",".",".","."]],[[".","_",".","_",".","_",".",".","_",".",".",".",".",".","_",".",".",".",".",".",".",".",".",".",".",".",".",".",".",".",".",".",".","_",".",".",".",".",".",".","_"],[".","_",".","_",".","_",".",".","_",".",".",".",".",".","_",".",".",".",".",".",".",".",".",".",".",".",".",".",".",".",".",".",".","_",".",".",".",".",".",".","_"],[".","_",".","_",7,"_",".",7,"_",".",".",".",".",".","_",".",".",".",".",".",".",".",".",".",".",".",5,5,".",".",".",".",".","_",".",".",".",".",".",".","_"],[5,"_",7,"_",".","_",7,".","_",7,5,5,"\\",0,"_",0,0,5,5,5,5,".",".",".",7,7,".",".",5,5,5,"\\",0,"_",0,0,0,5,5,7,"_"],[".","_",".","_",".","_",".",".","_",".",".",".",".",".","_",".",".",".",".",".",".",8,5,8,".",".",".",".",".",".",".",".",".","_",".",".",".",".",".",".","_"],[".","_",".","_",".","_",".",".","_",".",".",".",".",".","_",".",".",".",".",".",".",".",".",".",".",".",".",".",".",".",".",".",".","_",".",".",".",".",".",".","_"]],[["_",".","_",".",".","_",".",".","_",".","_",".",".","_",".",".","_"],["_",8,"_",8,10,"_",8,10,"_",8,"_",8,10,"_",8,10,"_"],["_",".","_",".",".","_",".",".","_",".","_",".",".","_",".",".","_"],["_",".","_",".",".","_",".",".","_",".","_",".",".","_",".",".","_"],["_",".","_",".",".","_",".",".","_",".","_",".",".","_",".",".","_"],["_",".","_",".",".","_",".",".","_",".","_",".",".","_",".",".","_"]],[[10,8,".",".",".",".",".",".","_",".",".",".","_",".",".",".",".",".",".",".",".",".",".",".",8,".","_",".",".",".","_",".",".",".","_",".",".","_",".","_",".",".","_",".",".",".","."],[".",".",10,8,10,10,8,8,"_",8,"\\",3,"_",".",".",".",8,8,10,".",10,".",10,10,".",8,"_",8,"\\",3,"_",8,8,8,"_",8,8,"_",10,"_",10,10,"_",10,".",10,10],[".",".",".",".",".",".",".",".","_",".",".",".","_",7,7,7,".",".",".",7,".",7,".",".",".",".","_",".",".",".","_",".",".",".","_",".",".","_",".","_",".",".","_",".",7,".","."],[".",".",".",".",".",".",".",".","_",".",".",".","_",".",".",".",".",".",".",".",".",".",".",".",".",".","_",".",".",".","_",".",".",".","_",".",".","_",".","_",".",".","_",".",".",".","."],[".",".",".",".",".",".",".",".","_",".",".",".","_",".",".",".",".",".",".",".",".",".",".",".",".",".","_",".",".",".","_",".",".",".","_",".",".","_",".","_",".",".","_",".",".",".","."],[".",".",".",".",".",".",".",".","_",".",".",".","_",".",".",".",".",".",".",".",".",".",".",".",".",".","_",".",".",".","_",".",".",".","_",".",".","_",".","_",".",".","_",".",".",".","."]],[[10,8,".",".",".",".",".",".",10,".",8,10,10,10,".",".",".",".",".",8,8,".","_",".",".",".","_",".",".",".",".",".",".",".",".",".",".",".",".","_"],[".",".",8,10,10,".",8,10,".",10,".",".",".",".",".",".",".",10,10,".",".",8,"_",8,"\\",3,"_",".",".",".",8,8,10,".",".",10,".",10,".","_"],[".",".",".",".",".",10,".",".",".",".",".",".",".",".",10,7,10,".",".",".",".",".","_",".",".",".","_",7,7,7,".",".",".",7,7,".",7,".",7,"_"],[".",".",".",".",".",".",".",".",".",".",".",".",".",".",".",".",".",".",".",".",".",".","_",".",".",".","_",".",".",".",".",".",".",".",".",".",".",".",".","_"],[".",".",".",".",".",".",".",".",".",".",".",".",".",".",".",".",".",".",".",".",".",".","_",".",".",".","_",".",".",".",".",".",".",".",".",".",".",".",".","_"],[".",".",".",".",".",".",".",".",".",".",".",".",".",".",".",".",".",".",".",".",".",".","_",".",".",".","_",".",".",".",".",".",".",".",".",".",".",".",".","_"]],[["_",".","_",".",".","_",".",".","_",".","_",".",".","_",".",".","_"],["_",".","_",".",".","_",".",".","_",".","_",".",".","_",".",".","_"],["_",".","_",".",".","_",".",".","_",".","_",".",".","_",".",".","_"],["_",5,"_",5,7,"_",5,7,"_",5,"_",5,7,"_",5,7,"_"],["_",".","_",".",".","_",".",".","_",".","_",".",".","_",".",".","_"],["_",".","_",".",".","_",".",".","_",".","_",".",".","_",".",".","_"]],[[".",".",".",".",".",".",".","_",".",".",".",".",".",".",".",".",".","_",".",".",".",".",".",".",".",".",".",".",".",".",".",".",".","_"],[".",".",".",".",".",".",".","_",".",".",".",".",".",".",".",".",".","_",".",".",".",".",".",".",".",".",".",".",".",".",".",".",".","_"],[".",".",".",".",".",".",".","_",".",".",".",".",".",".",".",".",".","_",".",".",".",".",".",".",".",".",".",".",".",".",".",".",".","_"],[".",".",".",".",".",".",".","_",".",".",".",".",".",".",".",".",".","_",".",".",".",".",".",".",".",".",".",".",".",".",".",".",7,"_"],[5,8,5,".",5,".",5,"_",5,8,10,5,".",8,8,".",5,"_",5,8,5,".",5,".",5,8,5,5,5,".",".",5,".","_"],[".",".",".",6,".",6,".","_",".",".",".",".",6,".",".",6,".","_",".",".",".",6,".",6,".",".",".",".",".",6,6,".",".","_"]],[[".","_",".",".",".",".",".","_",".","_",".",".",".",".",".",".",".",".",".",".",".",".","_",".","_",".",".",8,".",".",".","_"],[10,"_",10,10,".",10,10,"_",10,"_",10,10,".",10,10,10,8,10,10,".",10,10,"_",10,"_",10,10,".",10,8,10,"_"],[".","_",".",".",7,".",".","_",".","_",".",".",7,".",".",".",".",".",".",7,".",".","_",".","_",".",".",".",".",".",".","_"],[".","_",".",".",".",".",".","_",".","_",".",".",".",".",".",".",".",".",".",".",".",".","_",".","_",".",".",".",".",".",".","_"],[".","_",".",".",".",".",".","_",".","_",".",".",".",".",".",".",".",".",".",".",".",".","_",".","_",".",".",".",".",".",".","_"],[".","_",".",".",".",".",".","_",".","_",".",".",".",".",".",".",".",".",".",".",".",".","_",".","_",".",".",".",".",".",".","_"]],[[10,8,".",".",".",".",".",".","_",".",".",".","_",".",".",".",".",".",".",".",".",".",8,".","_",".",".",".",".","_",".",".",".",".",".",".",".","."],[".",".",10,8,10,10,8,8,"_",8,"\\",3,"_",10,8,8,10,".",10,".",10,10,".",8,"_",8,"\\",3,8,"_",8,8,10,10,10,".",10,10],[".",".",".",".",".",".",".",".","_",".",".",".","_",".",".",".",".",7,".",7,".",".",".",".","_",".",".",".",".","_",".",".",".",".",".",7,".","."],[".",".",".",".",".",".",".",".","_",".",".",".","_",".",".",".",".",".",".",".",".",".",".",".","_",".",".",".",".","_",".",".",".",".",".",".",".","."],[".",".",".",".",".",".",".",".","_",".",".",".","_",".",".",".",".",".",".",".",".",".",".",".","_",".",".",".",".","_",".",".",".",".",".",".",".","."],[".",".",".",".",".",".",".",".","_",".",".",".","_",".",".",".",".",".",".",".",".",".",".",".","_",".",".",".",".","_",".",".",".",".",".",".",".","."]],[[10,8,".",".",".",".",".",".",10,10,10,10,10,10,".",".",".",".",".",8,8,".","_",".",".",".","_",".",".",".",".",".",".",".",".",".",".",".",".","_",".","_",".","."],[".",".",8,10,10,".",8,10,".",".",".",".",".",".",".",".",".",10,10,".",".",8,"_",8,"\\",3,"_",".",".",".",8,8,10,".",".",10,".",10,".","_",8,"_",8,10],[".",".",".",".",".",10,".",".",".",".",".",".",".",".",10,7,10,".",".",".",".",".","_",".",".",".","_",7,7,7,".",".",".",7,7,".",7,".",7,"_",".","_",".","."],[".",".",".",".",".",".",".",".",".",".",".",".",".",".",".",".",".",".",".",".",".",".","_",".",".",".","_",".",".",".",".",".",".",".",".",".",".",".",".","_",".","_",".","."],[".",".",".",".",".",".",".",".",".",".",".",".",".",".",".",".",".",".",".",".",".",".","_",".",".",".","_",".",".",".",".",".",".",".",".",".",".",".",".","_",".","_",".","."],[".",".",".",".",".",".",".",".",".",".",".",".",".",".",".",".",".",".",".",".",".",".","_",".",".",".","_",".",".",".",".",".",".",".",".",".",".",".",".","_",".","_",".","."]],[[".",".",".",".",".",".",".",".",".",".",".",".",".",".",".",".",".",".",".",".",".",".",".",".",".",".","_",".",".",".",".",".",".",".",".",".",".",".",".","_"],[".",".",".",".",".",".",".",".",".",".",".",".",".",".",".",".",".",".",".",".",".",".",".",".",".",".","_",".",".",".",".",".",".",".",".",".",".",".",".","_"],[7,5,".",".",".",".",".",".",7,5,".",".",7,7,".",".",".",".",".",5,5,".",".",".",".",".","_",".",".",".",".",".",".",".",".",".",".",".",".","_"],[".",".",5,7,7,".",5,7,".",".",7,7,".",".",".",".",".",7,7,".",".",5,5,5,"\\",0,"_",0,0,0,5,5,7,".",".",7,".",7,".","_"],[".",".",".",".",".",8,".",".",".",".",".",".",".",".",8,5,8,".",".",".",".",".",".",".",".",".","_",".",".",".",".",".",".",5,5,".",5,".",5,"_"],[".",".",".",".",".",".",".",".",".",".",".",".",".",".",".",".",".",".",".",".",".",".",".",".",".",".","_",".",".",".",".",".",".",".",".",".",".",".",".","_"]]],"numberofstrings":6,"notes":["E","B","G","D","A","E","B"],"capo":0,"stringnotes":["E4","B3","G3","D3","A2","E2"],"comments":["Call 1 (1):","Response 1 (2):","Call 2 (3):","Response 2 (4):","Call 3 (5):","Response 3 (6):","Call 4 (7):","Response 4 (8):","Call 5 (9):","Response 5 (10):","Call 6 (11):","Response 6 (12):","Call 7 (13):","Response 7 (14):","Call 8 (15):","Response 8 (16):","Call 9 (17):","Response 9 (18):","Call 10 (19):","Call 10 (20):","Background during Call 10 (21):","Response 10 (22):","Response 10 (23):","Background during Response 10 (24):","Call 11 (25):","Response 11 (26):","Response 12 (27):","Response 12 (28):","Harmony for Response 12 (29):"],"timing":[["W",null,"W","W","W","W","W","W",null,"W",null,"W",null,"W","W","W","W","W","W","W","W","W","W","W","W",null,"W",null,"W",null,"W","W","W","W"],["W",null,"W","W","W","W","W","W",null,"W",null,"W",null,"W","W","W","W","W","W","W","W","W","W","W","W",null,"W",null,"W",null,"W","W","W","W"],["W",null,"W","W",null,"W","W","W","W",null,"W",null,"W",null,"W",null,"W","W","W","W"],["W",null,"W","W",null,"W","W","W","W",null,"W",null,"W","W","W","W","W","W","W","W","W","W"],["W",null,"W","W",null,"W","W","W","W",null,"W",null,"W","W",null,"W","W","W","W","W","W"],["W",null,"W","W",null,"W","W","W","W",null,"W",null,"W","W","W","W","W","W","W","W","W","W","W"],["W","W","W","W","W","W","W",null,"W",null,"W","W",null,"W","W","W","W","W","W","W"],["W",null,"W","W","W","W","W","W","W",null,"W","W","W","W","W","W"],["W","W","W","W","W","W","W","W","W","W",null,"W","W","W","W","W","W","W","W","W","W"],["W",null,"W","W","W","W","W",null,"W",null,"W","W","W","W","W","W"],["W",null,"W","W","W","W","W",null,"W","W","W","W",null,"W","W","W"],["W",null,"W","W","W","W","W",null,"W","W",null,"W",null,"W","W","W"],["W","W","W","W","W","W","W","W","W","W","W","W","W","W","W","W","W"],["W","W","W","W","W","W","W","W","W","W","W","W","W","W","W","W","W"],["W",null,"W","W","W","W","W",null,"W","W","W","W",null,"W","W","W","W","W"],["W",null,"W","W","W","W","W",null,"W","W",null,"W","W","W","W","W","W"],["W","W","W","W","W","W","W","W","W","W","W","W","W","W","W","W"],["W","W","W","W","W","W","W","W","W","W","W","W","W","W","W","W","W","W"],["W","W","W","W","W",null,"W","W","W","W",null,"W",null,"W","W","W","W","W","W","W","W","W","W","W","W","W","W","W",null,"W",null,"W","W","W","W","W","W","W","W","W","W","W","W"],["W",null,"W",null,"W",null,"W","W",null,"W","W","W",null,"W",null,"W","W","W","W","W","W","W","W","W","W","W","W","W","W","W","W",null,"W",null,"W","W","W","W","W","W"],[null,"W",null,"W","W",null,"W","W",null,"W",null,"W","W",null,"W","W"],["W","W","W","W","W","W","W","W",null,"W",null,"W",null,"W","W","W","W","W","W","W","W","W","W","W","W","W",null,"W",null,"W",null,"W","W","W","W","W","W",null,"W",null,"W","W",null,"W","W","W","W"],["W","W","W","W","W","W","W","W","W","W","W","W","W","W","W","W","W","W","W","W","W","W","W","W","W","W",null,"W","W","W","W","W","W","W","W","W","W","W","W"],[null,"W",null,"W","W",null,"W","W",null,"W",null,"W","W",null,"W","W"],["W","W","W","W","W","W","W",null,"W","W","W","W","W","W","W","W","W",null,"W","W","W","W","W","W","W","W","W","W","W","W","W","W","W"],["W",null,"W","W","W","W","W",null,"W",null,"W","W","W","W","W","W","W","W","W","W","W","W",null,"W",null,"W","W","W","W","W","W"],["W","W","W","W","W","W","W","W",null,"W",null,"W",null,"W","W","W","W","W","W","W","W","W","W","W",null,"W",null,"W","W",null,"W","W","W","W","W","W","W","W"],["W","W","W","W","W","W","W","W","W","W","W","W","W","W","W","W","W","W","W","W","W","W",null,"W",null,"W",null,"W","W","W","W","W","W","W","W","W","W","W","W",null,"W",null,"W","W"],["W","W","W","W","W","W","W","W","W","W","W","W","W","W","W","W","W","W","W","W","W","W","W","W",null,"W",null,"W","W","W","W","W","W","W","W","W","W","W","W"]],"timingvisible":false,"tabcounter":40,"stave":28,"totalstaves":29,"instrument":"6guitar","selectedtuning":"6_standard","version":"13"}

Member for

2 months 2 weeks
Picture
About Me

Just a content creator making tabs :)

 

Here's a link to my content; check it out! (Youtube for tab covers)

xXxGodseyxXx

Submitted by xXxGodseyxXx on Sat, 2021-02-20 17:16