MILF - Friday Night Funkin'

01234567891011121314151617181920212223
E
B
G
D
A
E
B
0 1 2 3 4 5 6 7 8 9 10 11 12 13 14 15 16 17 18 19 20 21 22 23
(/) Slide Up  (\) Slide Down  (h) Hammer On  (p) Pull Off  (b) Bend (r) Release (v) Vibrato

Call & Response 1 (1):

E|------------------------12--14-------------------------------------------------------------12--14-------------------------------------------
B|--12-----12-----12--15-------------12-----12-----12--15--12--14--12--12-----12-----12--15-------------12-----12-----12--15--12--17--15------
G|----------------------------------------------------------------------------------------------------------------------------------------14--
D|--------------------------------------------------------------------------------------------------------------------------------------------
A|--------------------------------------------------------------------------------------------------------------------------------------------
E|--------------------------------------------------------------------------------------------------------------------------------------------

Call 2 (2):

E|-----------------------15/17-----15-----14-----15--14---------14---------------------------------15--14---------
B|--15-----15--15/17-------------------------------------17---------15-----17--15--19--14--15--17----------17-----
G|----------------------------------------------------------------------------------------------------------------
D|----------------------------------------------------------------------------------------------------------------
A|----------------------------------------------------------------------------------------------------------------
E|----------------------------------------------------------------------------------------------------------------

Response 2 (3):

E|----------------------------------------------------------------------------------------------------------------
B|----------------------------------------------------------------------------------------------------------------
G|-----------------------12/14-----12-----11-----12--11---------11---------------------------------12--11---------
D|--12-----12--12/14-------------------------------------14---------12-----14--12--16--11--12--14----------14-----
A|----------------------------------------------------------------------------------------------------------------
E|----------------------------------------------------------------------------------------------------------------

Call 3 (4):

E|----------------------------14-----14-----12-----------------12-----12-----------------------------------14-----14-----15/17-----15--14--12------14--12--------------
B|------12--14--15-----12--------------------------15--14--15---------------------------12--14--15-----12--------------------------------------15----------15--14--12--
G|--14-----------------------------------------------------------------------14-----14---------------------------------------------------------------------------------
D|---------------------------------------------------------------------------------------------------------------------------------------------------------------------
A|---------------------------------------------------------------------------------------------------------------------------------------------------------------------
E|---------------------------------------------------------------------------------------------------------------------------------------------------------------------

Response 3 (5):

E|---------------------------------------------------------------------------------------------------------------------------------------------------------------
B|-----------------------------------------------------------------------------------------------------------------------------------------------------------12--
G|--------------------------11-----11-----9--------------------9-----9---------------------------------11-----11-----12/14-----12--11--9------11--9--------------
D|------9--11--12-----9-------------------------12--11--12----------------------------9--11--12-----9-------------------------------------12---------12--11------
A|--12---------------------------------------------------------------------12-----12-----------------------------------------------------------------------------
E|---------------------------------------------------------------------------------------------------------------------------------------------------------------

Call & Response 4 (6):

E|-----------------------------------------------------14--12------12------------------------------------------------
B|--12-----12--14--15-----14-----12-----14--12--10-------------15------15--14--15--14--12--14--12--10-----12-----10--
G|-------------------------------------------------------------------------------------------------------------------
D|-------------------------------------------------------------------------------------------------------------------
A|-------------------------------------------------------------------------------------------------------------------
E|-------------------------------------------------------------------------------------------------------------------

Call 5 (7):

E|-----------------------15/17-----15-----14-----15--14---------14-----------------------------------------
B|--15-----15--15/17-------------------------------------17---------15-----15--17--15--14--12--------------
G|---------------------------------------------------------------------------------------------12--11------
D|-----------------------------------------------------------------------------------------------------14--
A|---------------------------------------------------------------------------------------------------------
E|---------------------------------------------------------------------------------------------------------

Response 5 (8):

E|---------------------------------------------------------------------------------------------------------
B|-------------------------------------------------------------------------15--17--15--14--12--------------
G|-----------------------12/14-----12-----11-----12--11---------11-----------------------------12--11------
D|--12-----12--12/14-------------------------------------14---------12---------------------------------14--
A|---------------------------------------------------------------------------------------------------------
E|---------------------------------------------------------------------------------------------------------

Call 6 (9):

E|------------------------------------------------------------------------------------------------------------------------
B|--17--15--14--17--15--14--17p15p14--17--15--14--17--15--14--17p15p14--17p15p14--17p15p14--17p15p14--17p15p14--17p15p14--
G|------------------------------------------------------------------------------------------------------------------------
D|------------------------------------------------------------------------------------------------------------------------
A|------------------------------------------------------------------------------------------------------------------------
E|------------------------------------------------------------------------------------------------------------------------

Call 6 (10):

E|--------------------------------
B|--17p15p14--17p15p14--17p15p14--
G|--------------------------------
D|--------------------------------
A|--------------------------------
E|--------------------------------

Response 6 (11):

E|------------------------------------------------------------------------------------------------------------------------
B|----------------------------------------------------------------------17p15p14--17p15p14--17p15p14--17p15p14--17p15p14--
G|------------------------------------------------------------------------------------------------------------------------
D|--14--12--11--14--12--11--14p12p11--14--12--11--14--12--11--14p12p11----------------------------------------------------
A|------------------------------------------------------------------------------------------------------------------------
E|------------------------------------------------------------------------------------------------------------------------

Response 6 (12):

E|--------------------------------
B|--17p15p14--17p15p14--17p15p14--
G|--------------------------------
D|--------------------------------
A|--------------------------------
E|--------------------------------

Call 3.5 -Ending portion change- (13):

E|--15/17-----15--14p12----------14p12--------------
B|-----------------------15--14---------15--14--12--
G|--------------------------------------------------
D|--------------------------------------------------
A|--------------------------------------------------
E|--------------------------------------------------

Response 3.5 -Ending portion change- (14):

E|-----------------------------------------------
B|-----------------------------------------------
G|--12/14-----12--11p9----------11p9-------------
D|----------------------12--11--------12--11--9--
A|-----------------------------------------------
E|-----------------------------------------------

Response 4 Harmony (15):

E|------------------------------------------------------------------------------------------------------------------
B|-------------------------------------17--15--14-----15--14--12--14--12------12-------------------------12---------
G|--------11--14--16-----14-----11----------------------------------------14------14--12--14--11----------------14--
D|--9---------------------------------------------------------------------------------------------14----------------
A|------------------------------------------------------------------------------------------------------------------
E|------------------------------------------------------------------------------------------------------------------

Response 4 Harmony (16):

E|--------------------------------------------------------------------------------------14-----------------------------
B|--12--------------------------10-------------------------------------------------------------15-----17-----14--------
G|---------11------------11------------12-----11------------11---------------------------------------------------------
D|----------------14---------------------------------14------------12-----14-----12---------------------------------9--
A|---------------------------------------------------------------------------------------------------------------------
E|---------------------------------------------------------------------------------------------------------------------

Mom solo (17):

E|-------------------------------14----------------------------------12----------------------------------14--17-----------------14----------------------
B|--12-----12-----12-----15--17---------12-----12-----12-----14--15---------12-----12-----12-----15--17-------------15--12--15------17--14--15--14------
G|--------------------------------------------------------------------------------------------------------------------------------------------------14--
D|------------------------------------------------------------------------------------------------------------------------------------------------------
A|------------------------------------------------------------------------------------------------------------------------------------------------------
E|------------------------------------------------------------------------------------------------------------------------------------------------------

Mom solo harmony (18):

E|----------------------------------------------------------------------------------------------------------------------------------------------------------
B|-------------------------------14----------------------------------12----------------------------------14--17-----------------14----------------------12--
G|--11-----11-----11-----14--16---------11-----11-----11-----12--14---------11-----11-----11-----14--16-------------14--11--14------16--12--14--12----------
D|--------------------------------------------------------------------------------------------------------------------------------------------------14------
A|----------------------------------------------------------------------------------------------------------------------------------------------------------
E|----------------------------------------------------------------------------------------------------------------------------------------------------------

							http://www.guitartabcreator.com
Chords

Tab Notes

***These tabs do not include any of the other auxiliary parts***

After the 6th call/response, it plays in this order:

  • 3rd call/response with the 3.5 endings of each
  • Call 4 twice with the response 4 harmony (Mom does harmony on B triplet (17-15-14) and on last portion when High e plays 14 on with BF taking lead)
  • Mom solo twice (mom solo harmony played only on the second time)
  • Call/Response 2
  • 3rd call/response with the 3.5 endings of each

Enjoy :)

Cover video here! :)

Instruments
{"strings":[[[".","_",".","_",".",".",12,14,"_",".","_",".","_",".",".",".",".",".",".","_",".","_",".",".",12,14,"_",".","_",".","_",".",".",".",".",".","."],[12,"_",12,"_",12,15,".",".","_",12,"_",12,"_",12,15,12,14,12,12,"_",12,"_",12,15,".",".","_",12,"_",12,"_",12,15,12,17,15,"."],[".","_",".","_",".",".",".",".","_",".","_",".","_",".",".",".",".",".",".","_",".","_",".",".",".",".","_",".","_",".","_",".",".",".",".",".",14],[".","_",".","_",".",".",".",".","_",".","_",".","_",".",".",".",".",".",".","_",".","_",".",".",".",".","_",".","_",".","_",".",".",".",".",".","."],[".","_",".","_",".",".",".",".","_",".","_",".","_",".",".",".",".",".",".","_",".","_",".",".",".",".","_",".","_",".","_",".",".",".",".",".","."],[".","_",".","_",".",".",".",".","_",".","_",".","_",".",".",".",".",".",".","_",".","_",".",".",".",".","_",".","_",".","_",".",".",".",".",".","."]],[[".","_",".",".",".",".","_",15,"/",17,"_",15,"_",14,"_",15,14,".","_",14,".","_",".",".",".",".",".",".",15,14,".","_"],[15,"_",15,15,"/",17,"_",".",".",".","_",".","_",".","_",".",".",17,"_",".",15,"_",17,15,19,14,15,17,".",".",17,"_"],[".","_",".",".",".",".","_",".",".",".","_",".","_",".","_",".",".",".","_",".",".","_",".",".",".",".",".",".",".",".",".","_"],[".","_",".",".",".",".","_",".",".",".","_",".","_",".","_",".",".",".","_",".",".","_",".",".",".",".",".",".",".",".",".","_"],[".","_",".",".",".",".","_",".",".",".","_",".","_",".","_",".",".",".","_",".",".","_",".",".",".",".",".",".",".",".",".","_"],[".","_",".",".",".",".","_",".",".",".","_",".","_",".","_",".",".",".","_",".",".","_",".",".",".",".",".",".",".",".",".","_"]],[[".","_",".",".",".",".","_",".",".",".","_",".","_",".","_",".",".",".","_",".",".","_",".",".",".",".",".",".",".",".",".","_"],[".","_",".",".",".",".","_",".",".",".","_",".","_",".","_",".",".",".","_",".",".","_",".",".",".",".",".",".",".",".",".","_"],[".","_",".",".",".",".","_",12,"/",14,"_",12,"_",11,"_",12,11,".","_",11,".","_",".",".",".",".",".",".",12,11,".","_"],[12,"_",12,12,"/",14,"_",".",".",".","_",".","_",".","_",".",".",14,"_",".",12,"_",14,12,16,11,12,14,".",".",14,"_"],[".","_",".",".",".",".","_",".",".",".","_",".","_",".","_",".",".",".","_",".",".","_",".",".",".",".",".",".",".",".",".","_"],[".","_",".",".",".",".","_",".",".",".","_",".","_",".","_",".",".",".","_",".",".","_",".",".",".",".",".",".",".",".",".","_"]],[[".",".",".",".","_",".","_",14,"_",14,"_",12,"_",".",".",".",12,"_",12,"_",".","_",".",".",".",".","_",".",14,"_",14,"_",15,"/",17,"_",15,14,12,".",14,12,".",".","."],[".",12,14,15,"_",12,"_",".","_",".","_",".","_",15,14,15,".","_",".","_",".","_",".",12,14,15,"_",12,".","_",".","_",".",".",".","_",".",".",".",15,".",".",15,14,12],[14,".",".",".","_",".","_",".","_",".","_",".","_",".",".",".",".","_",".","_",14,"_",14,".",".",".","_",".",".","_",".","_",".",".",".","_",".",".",".",".",".",".",".",".","."],[".",".",".",".","_",".","_",".","_",".","_",".","_",".",".",".",".","_",".","_",".","_",".",".",".",".","_",".",".","_",".","_",".",".",".","_",".",".",".",".",".",".",".",".","."],[".",".",".",".","_",".","_",".","_",".","_",".","_",".",".",".",".","_",".","_",".","_",".",".",".",".","_",".",".","_",".","_",".",".",".","_",".",".",".",".",".",".",".",".","."],[".",".",".",".","_",".","_",".","_",".","_",".","_",".",".",".",".","_",".","_",".","_",".",".",".",".","_",".",".","_",".","_",".",".",".","_",".",".",".",".",".",".",".",".","."]],[[".",".",".",".","_",".","_",".","_",".","_",".","_",".",".",".","_",".","_",".","_",".","_",".",".",".",".","_",".",".","_",".","_",".",".",".","_",".",".",".",".",".",".",".",".","."],[".",".",".",".","_",".","_",".","_",".","_",".","_",".",".",".","_",".","_",".","_",".","_",".",".",".",".","_",".",".","_",".","_",".",".",".","_",".",".",".",".",".",".",".",".",12],[".",".",".",".","_",".","_",11,"_",11,"_",9,"_",".",".",".","_",9,"_",9,"_",".","_",".",".",".",".","_",".",11,"_",11,"_",12,"/",14,"_",12,11,9,".",11,9,".",".","."],[".",9,11,12,"_",9,"_",".","_",".","_",".","_",12,11,12,"_",".","_",".","_",".","_",".",9,11,12,"_",9,".","_",".","_",".",".",".","_",".",".",".",12,".",".",12,11,"."],[12,".",".",".","_",".","_",".","_",".","_",".","_",".",".",".","_",".","_",".","_",12,"_",12,".",".",".","_",".",".","_",".","_",".",".",".","_",".",".",".",".",".",".",".",".","."],[".",".",".",".","_",".","_",".","_",".","_",".","_",".",".",".","_",".","_",".","_",".","_",".",".",".",".","_",".",".","_",".","_",".",".",".","_",".",".",".",".",".",".",".",".","."]],[[".","_",".",".",".","_",".","_",".","_",".",".",".","_",14,12,".",12,".",".",".",".",".",".",".",".","_",".","_","."],[12,"_",12,14,15,"_",14,"_",12,"_",14,12,10,"_",".",".",15,".",15,14,15,14,12,14,12,10,"_",12,"_",10],[".","_",".",".",".","_",".","_",".","_",".",".",".","_",".",".",".",".",".",".",".",".",".",".",".",".","_",".","_","."],[".","_",".",".",".","_",".","_",".","_",".",".",".","_",".",".",".",".",".",".",".",".",".",".",".",".","_",".","_","."],[".","_",".",".",".","_",".","_",".","_",".",".",".","_",".",".",".",".",".",".",".",".",".",".",".",".","_",".","_","."],[".","_",".",".",".","_",".","_",".","_",".",".",".","_",".",".",".",".",".",".",".",".",".",".",".",".","_",".","_","."]],[[".","_",".",".",".",".","_",15,"/",17,"_",15,"_",14,"_",15,14,".","_",14,".","_",".",".",".",".",".",".",".","."],[15,"_",15,15,"/",17,"_",".",".",".","_",".","_",".","_",".",".",17,"_",".",15,"_",15,17,15,14,12,".",".","."],[".","_",".",".",".",".","_",".",".",".","_",".","_",".","_",".",".",".","_",".",".","_",".",".",".",".",".",12,11,"."],[".","_",".",".",".",".","_",".",".",".","_",".","_",".","_",".",".",".","_",".",".","_",".",".",".",".",".",".",".",14],[".","_",".",".",".",".","_",".",".",".","_",".","_",".","_",".",".",".","_",".",".","_",".",".",".",".",".",".",".","."],[".","_",".",".",".",".","_",".",".",".","_",".","_",".","_",".",".",".","_",".",".","_",".",".",".",".",".",".",".","."]],[[".","_",".",".",".",".","_",".",".",".","_",".","_",".","_",".",".",".","_",".",".","_",".",".",".",".",".",".",".","."],[".","_",".",".",".",".","_",".",".",".","_",".","_",".","_",".",".",".","_",".",".","_",15,17,15,14,12,".",".","."],[".","_",".",".",".",".","_",12,"/",14,"_",12,"_",11,"_",12,11,".","_",11,".","_",".",".",".",".",".",12,11,"."],[12,"_",12,12,"/",14,"_",".",".",".","_",".","_",".","_",".",".",14,"_",".",12,"_",".",".",".",".",".",".",".",14],[".","_",".",".",".",".","_",".",".",".","_",".","_",".","_",".",".",".","_",".",".","_",".",".",".",".",".",".",".","."],[".","_",".",".",".",".","_",".",".",".","_",".","_",".","_",".",".",".","_",".",".","_",".",".",".",".",".",".",".","."]],[[".",".",".",".",".",".",".",".",".",".",".",".",".",".",".",".",".",".",".",".",".",".",".",".",".",".",".",".",".",".",".",".",".",".",".",".",".",".",".",".",".",".",".",".",".",".","."],[17,15,14,17,15,14,17,"p",15,"p",14,17,15,14,17,15,14,17,"p",15,"p",14,17,"p",15,"p",14,17,"p",15,"p",14,17,"p",15,"p",14,17,"p",15,"p",14,17,"p",15,"p",14],[".",".",".",".",".",".",".",".",".",".",".",".",".",".",".",".",".",".",".",".",".",".",".",".",".",".",".",".",".",".",".",".",".",".",".",".",".",".",".",".",".",".",".",".",".",".","."],[".",".",".",".",".",".",".",".",".",".",".",".",".",".",".",".",".",".",".",".",".",".",".",".",".",".",".",".",".",".",".",".",".",".",".",".",".",".",".",".",".",".",".",".",".",".","."],[".",".",".",".",".",".",".",".",".",".",".",".",".",".",".",".",".",".",".",".",".",".",".",".",".",".",".",".",".",".",".",".",".",".",".",".",".",".",".",".",".",".",".",".",".",".","."],[".",".",".",".",".",".",".",".",".",".",".",".",".",".",".",".",".",".",".",".",".",".",".",".",".",".",".",".",".",".",".",".",".",".",".",".",".",".",".",".",".",".",".",".",".",".","."]],[[".",".",".",".",".",".",".",".",".",".",".",".",".",".","."],[17,"p",15,"p",14,17,"p",15,"p",14,17,"p",15,"p",14],[".",".",".",".",".",".",".",".",".",".",".",".",".",".","."],[".",".",".",".",".",".",".",".",".",".",".",".",".",".","."],[".",".",".",".",".",".",".",".",".",".",".",".",".",".","."],[".",".",".",".",".",".",".",".",".",".",".",".",".",".","."]],[[".",".",".",".",".",".",".",".",".",".",".",".",".",".",".",".",".",".",".",".",".",".",".",".",".",".",".",".",".",".",".",".",".",".",".",".",".",".",".",".",".",".",".",".",".",".","."],[".",".",".",".",".",".",".",".",".",".",".",".",".",".",".",".",".",".",".",".",".",".",17,"p",15,"p",14,17,"p",15,"p",14,17,"p",15,"p",14,17,"p",15,"p",14,17,"p",15,"p",14],[".",".",".",".",".",".",".",".",".",".",".",".",".",".",".",".",".",".",".",".",".",".",".",".",".",".",".",".",".",".",".",".",".",".",".",".",".",".",".",".",".",".",".",".",".",".","."],[14,12,11,14,12,11,14,"p",12,"p",11,14,12,11,14,12,11,14,"p",12,"p",11,".",".",".",".",".",".",".",".",".",".",".",".",".",".",".",".",".",".",".",".",".",".",".",".","."],[".",".",".",".",".",".",".",".",".",".",".",".",".",".",".",".",".",".",".",".",".",".",".",".",".",".",".",".",".",".",".",".",".",".",".",".",".",".",".",".",".",".",".",".",".",".","."],[".",".",".",".",".",".",".",".",".",".",".",".",".",".",".",".",".",".",".",".",".",".",".",".",".",".",".",".",".",".",".",".",".",".",".",".",".",".",".",".",".",".",".",".",".",".","."]],[[".",".",".",".",".",".",".",".",".",".",".",".",".",".","."],[17,"p",15,"p",14,17,"p",15,"p",14,17,"p",15,"p",14],[".",".",".",".",".",".",".",".",".",".",".",".",".",".","."],[".",".",".",".",".",".",".",".",".",".",".",".",".",".","."],[".",".",".",".",".",".",".",".",".",".",".",".",".",".","."],[".",".",".",".",".",".",".",".",".",".",".",".",".",".","."]],[[15,"/",17,"_",15,14,"p",12,".",".",14,"p",12,".",".","."],[".",".",".","_",".",".",".",".",15,14,".",".",".",15,14,12],[".",".",".","_",".",".",".",".",".",".",".",".",".",".",".","."],[".",".",".","_",".",".",".",".",".",".",".",".",".",".",".","."],[".",".",".","_",".",".",".",".",".",".",".",".",".",".",".","."],[".",".",".","_",".",".",".",".",".",".",".",".",".",".",".","."]],[[".",".",".","_",".",".",".",".",".",".",".",".",".",".",".","."],[".",".",".","_",".",".",".",".",".",".",".",".",".",".",".","."],[12,"/",14,"_",12,11,"p",9,".",".",11,"p",9,".",".","."],[".",".",".","_",".",".",".",".",12,11,".",".",".",12,11,9],[".",".",".","_",".",".",".",".",".",".",".",".",".",".",".","."],[".",".",".","_",".",".",".",".",".",".",".",".",".",".",".","."]],[[".","_",".",".",".","_",".","_",".","_",".",".",".","_",".",".",".",".",".",".",".",".",".",".",".",".","_",".","_","."],[".","_",".",".",".","_",".","_",".","_",17,15,14,"_",15,14,12,14,12,".",12,".",".",".",".",".","_",12,"_","."],[".","_",11,14,16,"_",14,"_",11,"_",".",".",".","_",".",".",".",".",".",14,".",14,12,14,11,".","_",".","_",14],[9,"_",".",".",".","_",".","_",".","_",".",".",".","_",".",".",".",".",".",".",".",".",".",".",".",14,"_",".","_","."],[".","_",".",".",".","_",".","_",".","_",".",".",".","_",".",".",".",".",".",".",".",".",".",".",".",".","_",".","_","."],[".","_",".",".",".","_",".","_",".","_",".",".",".","_",".",".",".",".",".",".",".",".",".",".",".",".","_",".","_","."]],[[".","_",".","_",".","_",".","_",".","_",".","_",".","_",".","_",".","_",".","_",".","_",".","_",14,"_",".","_",".","_",".","_","."],[12,"_",".","_",".","_",".","_",10,"_",".","_",".","_",".","_",".","_",".","_",".","_",".","_",".","_",15,"_",17,"_",14,"_","."],[".","_",11,"_",".","_",11,"_",".","_",12,"_",11,"_",".","_",11,"_",".","_",".","_",".","_",".","_",".","_",".","_",".","_","."],[".","_",".","_",14,"_",".","_",".","_",".","_",".","_",14,"_",".","_",12,"_",14,"_",12,"_",".","_",".","_",".","_",".","_",9],[".","_",".","_",".","_",".","_",".","_",".","_",".","_",".","_",".","_",".","_",".","_",".","_",".","_",".","_",".","_",".","_","."],[".","_",".","_",".","_",".","_",".","_",".","_",".","_",".","_",".","_",".","_",".","_",".","_",".","_",".","_",".","_",".","_","."]],[[".","_",".","_",".","_",".",".",14,"_",".","_",".","_",".","_",".",".",12,"_",".","_",".","_",".","_",".",".",14,17,"_",".",".",".",14,".",".",".",".","."],[12,"_",12,"_",12,"_",15,17,".","_",12,"_",12,"_",12,"_",14,15,".","_",12,"_",12,"_",12,"_",15,17,".",".","_",15,12,15,".",17,14,15,14,"."],[".","_",".","_",".","_",".",".",".","_",".","_",".","_",".","_",".",".",".","_",".","_",".","_",".","_",".",".",".",".","_",".",".",".",".",".",".",".",".",14],[".","_",".","_",".","_",".",".",".","_",".","_",".","_",".","_",".",".",".","_",".","_",".","_",".","_",".",".",".",".","_",".",".",".",".",".",".",".",".","."],[".","_",".","_",".","_",".",".",".","_",".","_",".","_",".","_",".",".",".","_",".","_",".","_",".","_",".",".",".",".","_",".",".",".",".",".",".",".",".","."],[".","_",".","_",".","_",".",".",".","_",".","_",".","_",".","_",".",".",".","_",".","_",".","_",".","_",".",".",".",".","_",".",".",".",".",".",".",".",".","."]],[[".","_",".","_",".","_",".",".",".","_",".","_",".","_",".","_",".",".",".","_",".","_",".","_",".","_",".",".",".",".","_",".",".",".",".",".",".",".",".",".","."],[".","_",".","_",".","_",".",".",14,"_",".","_",".","_",".","_",".",".",12,"_",".","_",".","_",".","_",".",".",14,17,"_",".",".",".",14,".",".",".",".",".",12],[11,"_",11,"_",11,"_",14,16,".","_",11,"_",11,"_",11,"_",12,14,".","_",11,"_",11,"_",11,"_",14,16,".",".","_",14,11,14,".",16,12,14,12,".","."],[".","_",".","_",".","_",".",".",".","_",".","_",".","_",".","_",".",".",".","_",".","_",".","_",".","_",".",".",".",".","_",".",".",".",".",".",".",".",".",14,"."],[".","_",".","_",".","_",".",".",".","_",".","_",".","_",".","_",".",".",".","_",".","_",".","_",".","_",".",".",".",".","_",".",".",".",".",".",".",".",".",".","."],[".","_",".","_",".","_",".",".",".","_",".","_",".","_",".","_",".",".",".","_",".","_",".","_",".","_",".",".",".",".","_",".",".",".",".",".",".",".",".",".","."]]],"numberofstrings":6,"notes":["E","B","G","D","A","E","B"],"capo":0,"stringnotes":["E4","B3","G3","D3","A2","E2"],"comments":["Call & Response 1 (1):","Call 2 (2):","Response 2 (3):","Call 3 (4):","Response 3 (5):","Call & Response 4 (6):","Call 5 (7):","Response 5 (8):","Call 6 (9):","Call 6 (10):","Response 6 (11):","Response 6 (12):","Call 3.5 -Ending portion change- (13):","Response 3.5 -Ending portion change- (14):","Response 4 Harmony (15):","Response 4 Harmony (16):","Mom solo (17):","Mom solo harmony (18):"],"timing":[["W",null,"W",null,"W","W","W","W",null,"W",null,"W",null,"W","W","W","W","W","W","W","W","W","W","W","W","W","W","W","W","W","W","W","W","W","W","W","W","W","W","W","W"],["W","W","W","W",null,"W",null,"W",null,"W",null,"W","W","W","W","W","W","W",null,"W","W",null,"W","W","W","W","W","W","W","W","W","W"],["W",null,"W","W","W","W",null,"W",null,"W",null,"W",null,"W",null,"W","W","W",null,"W","W",null,"W","W","W","W","W","W","W","W","W"],["W","W","W","W",null,"W",null,"W",null,"W",null,"W",null,"W","W","W","W","W","W","W","W",null,"W","W","W","W",null,"W","W",null,"W",null,"W",null,"W",null,"W","W","W","W","W","W","W","W","W"],["W","W","W","W",null,"W","W","W",null,"W",null,"W",null,"W","W","W",null,"W",null,"W",null,"W",null,"W","W","W","W",null,"W","W",null,"W",null,"W","W","W",null,"W","W","W","W","W","W","W","W","W"],["W",null,"W","W","W","W","W",null,"W",null,"W","W","W",null,"W","W","W","W","W","W","W","W","W","W","W","W",null,"W",null,"W"],["W",null,"W","W",null,"W",null,"W",null,"W","W","W",null,"W",null,"W","W","W",null,"W","W",null,"W","W","W","W","W","W","W","W"],["W",null,"W","W",null,"W",null,"W",null,"W",null,"W",null,"W",null,"W","W","W",null,"W","W",null,"W","W","W","W","W","W","W","W"],["W","W","W","W","W","W","W",null,"W",null,"W","W","W","W","W","W","W","W",null,"W",null,"W","W",null,"W",null,"W","W",null,"W",null,"W","W",null,"W",null,"W","W",null,"W",null,"W","W",null,"W",null,"W","W","W","W","W"],["W",null,"W",null,"W","W",null,"W",null,"W","W",null,"W",null,"W"],["W","W","W","W","W","W","W",null,"W",null,"W","W","W","W","W","W","W","W",null,"W",null,"W","W",null,"W",null,"W","W",null,"W",null,"W","W",null,"W",null,"W","W",null,"W",null,"W","W",null,"W",null,"W","W",null,"W"],["W",null,"W",null,"W","W",null,"W",null,"W","W",null,"W",null,"W"],["W",null,"W",null,"W","W",null,"W","W","W","W",null,"W","W","W","W"],["W",null,"W",null,"W","W",null,"W","W","W","W",null,"W","W","W","W"],["W",null,"W","W","W",null,"W",null,"W",null,"W","W","W",null,"W","W","W","W","W","W","W","W","W","W","W","W","W","W",null,"W"],["W",null,"W",null,"W",null,"W",null,"W",null,"W",null,"W",null,"W",null,"W",null,"W",null,"W",null,"W",null,"W",null,"W",null,"W",null,"W",null,"W"],["W",null,"W",null,"W",null,"W","W","W",null,"W",null,"W",null,"W",null,"W","W","W",null,"W",null,"W",null,"W",null,"W","W","W","W",null,"W","W","W","W","W","W","W","W","W"],["W",null,"W",null,"W",null,"W","W","W",null,"W",null,"W",null,"W",null,"W","W","W",null,"W",null,"W",null,"W",null,"W","W","W","W",null,"W","W","W","W","W","W","W","W","W","W"]],"timingvisible":false,"tabcounter":41,"stave":17,"totalstaves":18,"instrument":"6guitar","selectedtuning":"6_standard","version":"13"}

Member for

1 month 2 weeks
Picture
About Me

Just a content creator making tabs :)

 

Here's a link to my content; check it out! (Youtube for tab covers)

xXxGodseyxXx

Submitted by xXxGodseyxXx on Mon, 2021-01-11 15:10