Eggnog - Friday Night Funkin'

01234567891011121314151617181920212223
E
B
G
D
A
E
B
0 1 2 3 4 5 6 7 8 9 10 11 12 13 14 15 16 17 18 19 20 21 22 23
(/) Slide Up  (\) Slide Down  (h) Hammer On  (p) Pull Off  (b) Bend (r) Release (v) Vibrato

Call 1 (1):

E|------------------------------------------------------------------------------------------------------------
B|------------------------------------------------------------------------------------------------------------
G|------------------------------------------------------------------------------------------------------------
D|-------------------------------------------------8-------------------------------------------------6--------
A|--6-----6-----6-----6--8--10-----6-----6--8--10-----6-----6-----6-----6--8--10-----6-----6--8--10-----8-----
E|------------------------------------------------------------------------------------------------------------

Response 1 (2):

E|------------------------------------------------------------------------------------------------------------------
B|---------------------------------------------------11---------------------------------------------------9---------
G|--8-----8-----8-----8--10--12-----8-----8--10--12------8-----8-----8-----8--10--12-----8-----8--10--12-----10-----
D|------------------------------------------------------------------------------------------------------------------
A|------------------------------------------------------------------------------------------------------------------
E|------------------------------------------------------------------------------------------------------------------

Call & Response 2 (3):

E|-------------------------------------------------------------------------------------------------------------------------------
B|----------------9--11-----9-----------------------------------9-----11-----9------------9--------------------------------------
G|--8--10--12---------------------12--10-----8-----8-----8--10---------------------12--------10-----10-----8-----8--10-----8-----
D|-------------------------------------------------------------------------------------------------------------------------------
A|-------------------------------------------------------------------------------------------------------------------------------
E|-------------------------------------------------------------------------------------------------------------------------------

Call 3 (4):

E|--------------------------------------------------------------
B|--------------------------------------------------------------
G|--------------------------------------------------------------
D|------------------8---------------8---------------8-----------
A|-----6--8--10--6-----6--8--10--6-----6--8--10--6-----6--6--8--
E|--------------------------------------------------------------

Call 3 (5):

E|---------------------------------------------------------------------
B|---------------------------------------------------------------------
G|------------------------------------------------------8--------------
D|------------------8---------------8------------8--12-----------------
A|--6--6--8--10--6-----6--8--10--6-----6--8--10------------6--8--6-----
E|---------------------------------------------------------------------

Response 3 (6):

E|---------------------------------------------------------------------
B|-------------------11----------------11----------------11------------
G|-----8--10--12--8------8--10--12--8------8--10--12--8------8--8--10--
D|---------------------------------------------------------------------
A|---------------------------------------------------------------------
E|---------------------------------------------------------------------

Response 3 (7):

E|------------------------------------------------------------11---------------
B|-------------------11----------------11-------------11--15-------------------
G|--8--8--10--12--8------8--10--12--8------8--10--12--------------8--10--8-----
D|-----------------------------------------------------------------------------
A|-----------------------------------------------------------------------------
E|-----------------------------------------------------------------------------

Call & Response 4 -x2- (8):

E|----------11-------------------------------
B|--11--15------15--13--11--9----------------
G|-----------------------------12--10--8-----
D|-------------------------------------------
A|-------------------------------------------
E|-------------------------------------------

Call 5 (9):

E|------------------------------------------------------------------------------------------------------------------
B|------------------------------------------------------------------------------------------------------------------
G|------------------------------------------------------------------------------------------------------------------
D|-----------------6-------------------------------------------------------6----------------------------------------
A|--6-----6-----6-----10--8-----6-----6-----6--10--8--6-----6-----6-----6-----10--8-----6-----6-----6--10--8--6-----
E|------------------------------------------------------------------------------------------------------------------

Response 5 (10):

E|----------------------------------------------------------------------------------------------------------------------
B|-----------------9---------------------------------------------------------9------------------------------------------
G|--8-----8-----8-----12--10-----8-----8-----8--12--10--8-----8-----8-----8-----12--10-----8-----8-----8--12--10--8-----
D|----------------------------------------------------------------------------------------------------------------------
A|----------------------------------------------------------------------------------------------------------------------
E|----------------------------------------------------------------------------------------------------------------------

Call & Response 6 (11):

E|--11-------------------------------11-----------------------------------------
B|------11--9--11------------------------11--9-----------------------11---------
G|-----------------12--10--12--8-------------------12--10--8-----10------10-----
D|------------------------------------------------------------------------------
A|------------------------------------------------------------------------------
E|------------------------------------------------------------------------------

Call & Response 7 (12):

E|--------------------------------------------------------------------
B|--9--11----------------------9--11----------------------------------
G|---------10-----8--7--8--10---------10-----8--7--8--10--8-----8-----
D|--------------------------------------------------------------------
A|--------------------------------------------------------------------
E|--------------------------------------------------------------------

							http://www.guitartabcreator.com
Chords

Tab Notes
<h1>***These tabs do not include any of the other auxiliary parts***</h1> <h3>After the 7th call/response, it plays in this order:</h3> <ul> <li>Call 3 and response 2 play together</li> <li>Response 3 plays alone</li> <li>Call &amp; Response 4 plays as normal</li> </ul> <p>Enjoy :)</p> <p><a href="https://www.youtube.com/watch?v=CQc_f3NcLSA">Cover video here! :)</a></p>
Instruments
{"strings":[[[".","_",".","_",".","_",".",".",".","_",".","_",".",".",".",".",".","_",".","_",".","_",".",".",".","_",".","_",".",".",".",".",".","_"],[".","_",".","_",".","_",".",".",".","_",".","_",".",".",".",".",".","_",".","_",".","_",".",".",".","_",".","_",".",".",".",".",".","_"],[".","_",".","_",".","_",".",".",".","_",".","_",".",".",".",".",".","_",".","_",".","_",".",".",".","_",".","_",".",".",".",".",".","_"],[".","_",".","_",".","_",".",".",".","_",".","_",".",".",".",8,".","_",".","_",".","_",".",".",".","_",".","_",".",".",".",6,".","_"],[6,"_",6,"_",6,"_",6,8,10,"_",6,"_",6,8,10,".",6,"_",6,"_",6,"_",6,8,10,"_",6,"_",6,8,10,".",8,"_"],[".","_",".","_",".","_",".",".",".","_",".","_",".",".",".",".",".","_",".","_",".","_",".",".",".","_",".","_",".",".",".",".",".","_"]],[[".","_",".","_",".","_",".",".",".","_",".","_",".",".",".",".",".","_",".","_",".","_",".",".",".","_",".","_",".",".",".",".",".","_"],[".","_",".","_",".","_",".",".",".","_",".","_",".",".",".",11,".","_",".","_",".","_",".",".",".","_",".","_",".",".",".",9,".","_"],[8,"_",8,"_",8,"_",8,10,12,"_",8,"_",8,10,12,".",8,"_",8,"_",8,"_",8,10,12,"_",8,"_",8,10,12,".",10,"_"],[".","_",".","_",".","_",".",".",".","_",".","_",".",".",".",".",".","_",".","_",".","_",".",".",".","_",".","_",".",".",".",".",".","_"],[".","_",".","_",".","_",".",".",".","_",".","_",".",".",".",".",".","_",".","_",".","_",".",".",".","_",".","_",".",".",".",".",".","_"],[".","_",".","_",".","_",".",".",".","_",".","_",".",".",".",".",".","_",".","_",".","_",".",".",".","_",".","_",".",".",".",".",".","_"]],[[".",".",".","_",".",".","_",".","_",".",".","_",".","_",".","_",".",".",".","_",".","_",".","_",".","_",".",".","_",".","_",".","_",".",".","_",".","_"],[".",".",".","_",9,11,"_",9,"_",".",".","_",".","_",".","_",".",".",9,"_",11,"_",9,"_",".","_",9,".","_",".","_",".","_",".",".","_",".","_"],[8,10,12,"_",".",".","_",".","_",12,10,"_",8,"_",8,"_",8,10,".","_",".","_",".","_",12,"_",".",10,"_",10,"_",8,"_",8,10,"_",8,"_"],[".",".",".","_",".",".","_",".","_",".",".","_",".","_",".","_",".",".",".","_",".","_",".","_",".","_",".",".","_",".","_",".","_",".",".","_",".","_"],[".",".",".","_",".",".","_",".","_",".",".","_",".","_",".","_",".",".",".","_",".","_",".","_",".","_",".",".","_",".","_",".","_",".",".","_",".","_"],[".",".",".","_",".",".","_",".","_",".",".","_",".","_",".","_",".",".",".","_",".","_",".","_",".","_",".",".","_",".","_",".","_",".",".","_",".","_"]],[["_",".",".",".",".",".",".",".",".",".",".",".",".",".",".",".",".",".","."],["_",".",".",".",".",".",".",".",".",".",".",".",".",".",".",".",".",".","."],["_",".",".",".",".",".",".",".",".",".",".",".",".",".",".",".",".",".","."],["_",".",".",".",".",8,".",".",".",".",8,".",".",".",".",8,".",".","."],["_",6,8,10,6,".",6,8,10,6,".",6,8,10,6,".",6,6,8],["_",".",".",".",".",".",".",".",".",".",".",".",".",".",".",".",".",".","."]],[[".",".",".",".",".",".",".",".",".",".",".",".",".",".",".",".",".",".",".",".","_"],[".",".",".",".",".",".",".",".",".",".",".",".",".",".",".",".",".",".",".",".","_"],[".",".",".",".",".",".",".",".",".",".",".",".",".",".",".",".",8,".",".",".","_"],[".",".",".",".",".",8,".",".",".",".",8,".",".",".",8,12,".",".",".",".","_"],[6,6,8,10,6,".",6,8,10,6,".",6,8,10,".",".",".",6,8,6,"_"],[".",".",".",".",".",".",".",".",".",".",".",".",".",".",".",".",".",".",".",".","_"]],[["_",".",".",".",".",".",".",".",".",".",".",".",".",".",".",".",".",".","."],["_",".",".",".",".",11,".",".",".",".",11,".",".",".",".",11,".",".","."],["_",8,10,12,8,".",8,10,12,8,".",8,10,12,8,".",8,8,10],["_",".",".",".",".",".",".",".",".",".",".",".",".",".",".",".",".",".","."],["_",".",".",".",".",".",".",".",".",".",".",".",".",".",".",".",".",".","."],["_",".",".",".",".",".",".",".",".",".",".",".",".",".",".",".",".",".","."]],[[".",".",".",".",".",".",".",".",".",".",".",".",".",".",".",".",11,".",".",".","_"],[".",".",".",".",".",11,".",".",".",".",11,".",".",".",11,15,".",".",".",".","_"],[8,8,10,12,8,".",8,10,12,8,".",8,10,12,".",".",".",8,10,8,"_"],[".",".",".",".",".",".",".",".",".",".",".",".",".",".",".",".",".",".",".",".","_"],[".",".",".",".",".",".",".",".",".",".",".",".",".",".",".",".",".",".",".",".","_"],[".",".",".",".",".",".",".",".",".",".",".",".",".",".",".",".",".",".",".",".","_"]],[[".",".",11,".",".",".",".",".",".",".","_"],[11,15,".",15,13,11,9,".",".",".","_"],[".",".",".",".",".",".",".",12,10,8,"_"],[".",".",".",".",".",".",".",".",".",".","_"],[".",".",".",".",".",".",".",".",".",".","_"],[".",".",".",".",".",".",".",".",".",".","_"]],[[".","_",".","_",".",".",".",".","_",".","_",".","_",".",".",".",".","_",".","_",".","_",".",".",".",".","_",".","_",".","_",".",".",".",".","_"],[".","_",".","_",".",".",".",".","_",".","_",".","_",".",".",".",".","_",".","_",".","_",".",".",".",".","_",".","_",".","_",".",".",".",".","_"],[".","_",".","_",".",".",".",".","_",".","_",".","_",".",".",".",".","_",".","_",".","_",".",".",".",".","_",".","_",".","_",".",".",".",".","_"],[".","_",".","_",".",6,".",".","_",".","_",".","_",".",".",".",".","_",".","_",".","_",".",6,".",".","_",".","_",".","_",".",".",".",".","_"],[6,"_",6,"_",6,".",10,8,"_",6,"_",6,"_",6,10,8,6,"_",6,"_",6,"_",6,".",10,8,"_",6,"_",6,"_",6,10,8,6,"_"],[".","_",".","_",".",".",".",".","_",".","_",".","_",".",".",".",".","_",".","_",".","_",".",".",".",".","_",".","_",".","_",".",".",".",".","_"]],[[".","_",".","_",".",".",".",".","_",".","_",".","_",".",".",".",".","_",".","_",".","_",".",".",".",".","_",".","_",".","_",".",".",".",".","_"],[".","_",".","_",".",9,".",".","_",".","_",".","_",".",".",".",".","_",".","_",".","_",".",9,".",".","_",".","_",".","_",".",".",".",".","_"],[8,"_",8,"_",8,".",12,10,"_",8,"_",8,"_",8,12,10,8,"_",8,"_",8,"_",8,".",12,10,"_",8,"_",8,"_",8,12,10,8,"_"],[".","_",".","_",".",".",".",".","_",".","_",".","_",".",".",".",".","_",".","_",".","_",".",".",".",".","_",".","_",".","_",".",".",".",".","_"],[".","_",".","_",".",".",".",".","_",".","_",".","_",".",".",".",".","_",".","_",".","_",".",".",".",".","_",".","_",".","_",".",".",".",".","_"],[".","_",".","_",".",".",".",".","_",".","_",".","_",".",".",".",".","_",".","_",".","_",".",".",".",".","_",".","_",".","_",".",".",".",".","_"]],[[11,".",".",".",".",".",".",".","_",11,".",".","_",".",".",".","_",".",".",".","_"],[".",11,9,11,".",".",".",".","_",".",11,9,"_",".",".",".","_",".",11,".","_"],[".",".",".",".",12,10,12,8,"_",".",".",".","_",12,10,8,"_",10,".",10,"_"],[".",".",".",".",".",".",".",".","_",".",".",".","_",".",".",".","_",".",".",".","_"],[".",".",".",".",".",".",".",".","_",".",".",".","_",".",".",".","_",".",".",".","_"],[".",".",".",".",".",".",".",".","_",".",".",".","_",".",".",".","_",".",".",".","_"]],[[".",".",".","_",".",".",".",".",".",".",".","_",".",".",".",".",".","_",".","_"],[9,11,".","_",".",".",".",".",9,11,".","_",".",".",".",".",".","_",".","_"],[".",".",10,"_",8,7,8,10,".",".",10,"_",8,7,8,10,8,"_",8,"_"],[".",".",".","_",".",".",".",".",".",".",".","_",".",".",".",".",".","_",".","_"],[".",".",".","_",".",".",".",".",".",".",".","_",".",".",".",".",".","_",".","_"],[".",".",".","_",".",".",".",".",".",".",".","_",".",".",".",".",".","_",".","_"]]],"numberofstrings":6,"notes":["E","B","G","D","A","E","B"],"capo":0,"stringnotes":["E4","B3","G3","D3","A2","E2"],"comments":["Call 1 (1):","Response 1 (2):","Call & Response 2 (3):","Call 3 (4):","Call 3 (5):","Response 3 (6):","Response 3 (7):","Call & Response 4 -x2- (8):","Call 5 (9):","Response 5 (10):","Call & Response 6 (11):","Call & Response 7 (12):","Call 7 (13):","Response 7 (14):"],"timing":[[null,null,null,null,null,null,null,null,null,null,null,null,null,null,null,null,null,null,null,null,null,null,null,null,null,null,null,null,null,null,null,null,null],[null,null,null,null,null,null,null,null,null,null,null,null,null,null,null,null,null,null,null,null,null,null,null,null,null,null,null,null,null,null,null,null,null,null,null,null,null,null],[null,null,null,null,null,null,null,null,null,null,null,null,null,null,null,null,null,null,null,null,null,null,null,null,null,null,null,null,null,null,null,null,null,null,null,null,null],[null,null,null,null,null,null,null,null,null,null,null,null,null,null,null,null,null,null,null,null,null,null,null,null,null,null,null,null,null,null,null,null,null,null,null,null,null],[null,null,null,null,null,null,null,null,null,null,null,null,null,null,null,null,null,null,null],[null,null,null,null,null,null,null,null,null,null,null,null,null,null,null,null,null,null,null,null],[null,null,null,null,null,null,null,null,null,null,null,null,null,null,null,null,null,null,null],[null,null,null,null,null,null,null,null,null,null,null,null,null,null,null,null,null,null,null,null],[null,null,null,null,null,null,null,null,null,null],[null,null,null,null,null,null,null,null,null,null,null,null,null,null,null,null,null,null,null,null,null,null,null,null,null,null,null,null,null,null,null,null,null,null,null],[null,null,null,null,null,null,null,null,null,null,null,null,null,null,null,null,null,null,null,null,null,null,null,null,null,null,null,null,null,null,null,null,null,null,null],[null,null,null,null,null,null,null,null,null,null,null,null,null,null,null,null,null,null,null,null],[null,null,null,null,null,null,null,null,null,null,null,null,null,null,null,null,null,null,null],[null,null,null,null,null,null,null,null,null,null,null,null,null,null,null,null,null,null,null]],"timingvisible":false,"tabcounter":20,"stave":11,"totalstaves":12,"instrument":"6guitar","selectedtuning":"6_standard","version":"13"}

Member for

3 months
Picture
About Me

Just a content creator making tabs :)

 

Here's a link to my content; check it out! (Youtube for tab covers)

xXxGodseyxXx

Submitted by xXxGodseyxXx on Sat, 2021-01-23 17:57