Sound will begin in 5 seconds

Undertale - Determination (melody)

01234567891011121314151617181920212223
E
B
G
D
A
E
B
0 1 2 3 4 5 6 7 8 9 10 11 12 13 14 15 16 17 18 19 20 21 22 23
Song Science #1: How Pros Use 6 Chords to Write Hit Songs
(/) Slide Up  (\) Slide Down  (h) Hammer On  (p) Pull Off  (b) Bend (r) Release (v) Vibrato

Stave 1:

E|-----------------------------------4--9--6--
B|--7--6--4-----4-----------4--6--7-----------
G|-----------6-----3--5-----------------------
D|-----------------------6--------------------
A|--------------------------------------------
E|--------------------------------------------

Stave 2:

E|--------------------------------------------
B|--7--6--4-----4-----------------------------
G|-----------6-----3--5-----------------------
D|-----------------------6--------4-----------
A|--------------------------6--8-----8--4--6--
E|--------------------------------------------

Stave 3:

E|-----------------------------------4--9--6--
B|--7--6--4-----4-----------4--6--7-----------
G|-----------6-----3--5-----------------------
D|-----------------------6--------------------
A|--------------------------------------------
E|--------------------------------------------

Stave 4:

E|--------------------------------------------
B|--7--6--4-----4-----------------------------
G|-----------6-----3--5-----------------------
D|-----------------------6--------4-----------
A|--------------------------6--8-----8--4--6--
E|--------------------------------------------

Stave 5:

E|--4-----------------------------4--------------------
B|-----7--5--4-----5--4--------4-----7--5--4-----5--4--
G|--------------6--------3--3-----------------6--------
D|-----------------------------------------------------
A|-----------------------------------------------------
E|-----------------------------------------------------

Stave 6:

E|--------------------------------------------------
B|--------------------------------------------4--3--
G|--------6--5-----------5-----------------4--------
D|-----6--------8--6--8-----8-----------4-----------
A|--6--------------------------6--6--8--------------
E|--------------------------------------------------

Stave 7:

E|--4-----------------------------4--------------------
B|-----7--5--4-----5--4--------4-----7--5--4-----5--4--
G|--------------6--------3--3-----------------6--------
D|-----------------------------------------------------
A|-----------------------------------------------------
E|-----------------------------------------------------

Stave 8:

E|--------------------------------------------------
B|--------------------------------------------------
G|--------6--5-----------5--------------------------
D|-----6--------8--6--8-----8-----------4-----------
A|--6--------------------------6--6--8-----8--4--6--
E|--------------------------------------------------

http://www.guitartabcreator.com
Guitar Tab Creator is intended to store guitar tab created through the tool. It currently does not support in-line text editing. Any text you place in here will be lost. If you need to comment on your tab, please use the "Tab Notes" section located below.