Sound will begin in 5 seconds

Love Waltz

Chords
01234567891011121314151617181920212223
E
B
G
D
A
E
B
0 1 2 3 4 5 6 7 8 9 10 11 12 13 14 15 16 17 18 19 20 21 22 23
Song Science #1: How Pros Use 6 Chords to Write Hit Songs
(/) Slide Up  (\) Slide Down  (h) Hammer On  (p) Pull Off  (b) Bend (r) Release (v) Vibrato

Stave 1:

E|--------|--2-----0--------7--|--2-----0-----------|--2--0--2-----0--7--|--2-----0--------7--|--
B|-----0--|-----0--------0-----|-----0-----0-----0--|--------3-----2-----|-----1--------0-----|--
G|--3-----|-----0--------0-----|-----0-----0--3-----|--------0-----------|-----0--------0-----|--
D|--------|--------------------|--------------------|--------------------|--------------------|--
A|--------|--------------------|--------------------|--------------------|--------------------|--
E|--------|--0-----------------|--0-----------------|--0-----------------|--0-----------------|--

Stave 2:

E|--7--8--8-----2--5--|--5--7--7--------3--|--3--2--5--3--2-----|--------------------|--2-----0--------7-----
B|--------8-----------|--------7-----5-----|-----------------2--|-----------------0--|-----0--------0--------
G|--------7-----------|--------0-----6-----|--------------------|--9-----8-----3-----|-----0--------0--------
D|--------------0-----|--------------------|--------------------|-----9--------------|-----------------------
A|--0-----------------|--------------------|--0-----------1-----|--------------------|-----------------------
E|--------------------|--3-----------------|--------------------|--7-----------------|--0--------------------

Stave 3:

E|--2-----0-----------|--2--0--2-----0--7--|--2-----0--------7--|--7--8--8-----2--5--|--5--7--7--------3--
B|-----0-----0-----0--|--------3-----2-----|-----1--------0-----|--------8-----------|--------7-----5-----
G|-----0-----0--3-----|--------0-----------|-----0--------0-----|--------7-----------|--------0-----6-----
D|--------------------|--------------------|--------------------|--------------0-----|--------------------
A|--------------------|--------------------|--------------------|--0-----------------|--------------------
E|--0-----------------|--0-----------------|--0-----------------|--------------------|--3-----------------

Stave 4:

E|--3--2--5--3--2-----|--------_-----_-----|--0--2--3--5--2--0--|--2-----2-----0-----|--3-----2--0--2--5--
B|-----------------2--|--------_-----_-----|--------------------|-----------------0--|-----1--------------
G|--------------------|--8-----9------9------|--------------------|-----3-----2--------|--------------------
D|--------------------|-----7--_-----9------|--------------0-----|-----0-----0-----0--|--------------0-----
A|--0-----------1-----|--------10-----10-----|--0-----------------|--------------------|--0-----------------
E|--------------------|--7-----_-----_-----|--------------------|--3-----------------|--------------------

Stave 5:

E|--0-----------------|--0--2--3--5--2--0--|--2-----2-----0-----|--
B|--------------0-----|--------------------|-----------------0--|--
G|--------3-----------|--------------------|-----3-----2--------|--
D|-----0-----0-----0--|--------------0-----|-----0-----0-----0--|--
A|--1-----------------|--0-----------------|--1-----------------|--
E|--------------------|--------------------|--------------------|--

http://www.guitartabcreator.com
Guitar Tab Creator is intended to store guitar tab created through the tool. It currently does not support in-line text editing. Any text you place in here will be lost. If you need to comment on your tab, please use the "Tab Notes" section located below.