Ohioisonfire

Chords

01234567891011121314151617181920212223
E
B
G
D
A
E
B
0 1 2 3 4 5 6 7 8 9 10 11 12 13 14 15 16 17 18 19 20 21 22 23
(/) Slide Up  (\) Slide Down  (h) Hammer On  (p) Pull Off  (b) Bend (r) Release (v) Vibrato
|-------------------------------|--------------------------------|
|-------------------------------|--------------------------------|
|-------------------------------|--------------------------------|
|-------------------------------|--------------------------------|
|-----------------------3-------|----------------5-5-5---3-3-3---|
|--0---0-0-0-0---0-1/3----3-1-3-|--0---0-0-0-0---5-5-5---3-3-3---|x2


|-------------------------------|--------------------------------|
|-------------------------------|--------------------------------|
|-------------------------------|--------------------------------|
|-------------------------------|--------------------------------|
|--0-0-0-0-----------3----------|--0-0-0-0-------5-5-5---3-3-3---|
|--0-0-0-0----0-1/3----3-1-3----|--0-0-0-0-------5-5-5---3-3-3---|x2

|---------------------|
|---------------------|
|---------------------|
|---------------------|
|--0---6----1-----4---|
|--0-----1--1-0-0-4---|x2

|---------------------|----------------------------|
|---------------------|----------------------------|
|---------------------|----------------------------|
|---------------------|----------------------------|
|--0---6----1-----4---|-1-1-1--1-1-1--1-1-1--1-1-1-|
|--0-----1--1-0-0-4---|-0-0-0--0-0-0--0-0-0--0-0-0-|


|-----------------------------------------|  |-----|
|-----------------------------------------|  |-----|
|-----------------------------------------|  |-----|
|-----------------------------------------|  |-----|
|--0-0-0--0-0-0---0-0-0-0-0-0---0--0--0---|  |--7--|
|--0-0-0--0-0-0---0-0-0-0-0-0---0--0--0---|x3|--7--|

|------------------------------------|---------------------------------------|
|------------------------------------|---------------------------------------|
|------------------------------------|---------------------------------------|
|--8-8-8-8-8-8-8-8-8-8-8-8-8-8-8-8---|---------------------------------------|
|--5-5-5-5-5-5-5-5-5-5-5-5-5-5-5-5---|--7-7-7-7-7-7-7-7-10-10-10-10-10-10-10-|
|------------------------------------|--7-7-7-7-7-7-7-7-10-10-10-10-10-10-10-|


|-------------------|-----------------|
|-------------------|-----------------|
|-------------------|-----------------|
|-------------------|-----------------|
|--5b6--------------|--5b6------------|
|--------0-1--0-4-0-|--------0-1--0-4-|








							http://www.guitartabcreator.com
genre
[[],[],[],[],[],[]]

Member for

8 years 9 months
Submitted by xReptilez4Lifex on Mon, 2011-08-22 17:00