The Ultimate Canon

01234567891011121314151617181920212223
E
B
G
D
A
E
B
0 1 2 3 4 5 6 7 8 9 10 11 12 13 14 15 16 17 18 19 20 21 22 23
(/) Slide Up  (\) Slide Down  (h) Hammer On  (p) Pull Off  (b) Bend (r) Release (v) Vibrato

Stave 1: Guitar 1

E|-----------2-----------------------------------------------------------------------------------------------------------------------------------------------
B|--------3--------------2-----------3-----------------------------------3-----------------------2--------3--------------------------------------------------
G|-----2--------------2-----------4--------------2-----------4--------2--------------4--------2--------2-----2--------2-----------4--------------------------
D|-----------------2-----------4--------------4-----------5-----------------------5--------2-----------------------2-----2-----4-----4--------4-----------5--
A|--5-----------5-----------2--------------4-----------5-----------5-----------5--------0-----------5-----------0-----------2--------------4-----4-----5-----
D|--------------------------------------4-----------5-----------0-----------5-----------------------------------------------------------4-----------5--------

Stave 2: Guitar 1 Continue

E|-----------------------------------------------------------------------------------------------------------------------------------
B|-----------------------------------------------3-----------------------------------------------------------------------------------
G|-----------2-----------------------2--------2-----2--------2-----------4-----------------------------------2-----------------------
D|-----------------------5--------2-----2-----------------2-----2-----4-----4--------4-----5-----5-----0-----------5-----5--------2--
A|--5-----5-----5-----5-----5--0-----------5-----------0-----------2--------------4-----4-----5-----5-----5-----5-----5-----5--0-----
D|-----0-----------5-----------------------------------------------------------2-----------------------------------------------------

Stave 3:

E|--
B|--
G|--
D|--
A|--
D|--

							http://www.guitartabcreator.com
Chords

Tab Notes
2nd A 5th Fret is meant to be open A String. Time Stamp 1:05 1% Guitar Skills 99% Editing Skills - The Ultimate Canon
Instruments
{"strings":[[[".",".",".",2,".",".",".",".",".",".",".",".",".",".",".",".",".",".",".",".",".",".",".",".",".",".",".",".",".",".",".",".",".",".",".",".",".",".",".",".",".",".",".",".",".",".",".",".",".",".","."],[".",".",3,".",".",".",".",2,".",".",".",3,".",".",".",".",".",".",".",".",".",".",".",3,".",".",".",".",".",".",".",2,".",".",3,".",".",".",".",".",".",".",".",".",".",".",".",".",".",".","."],[".",2,".",".",".",".",2,".",".",".",4,".",".",".",".",2,".",".",".",4,".",".",2,".",".",".",".",4,".",".",2,".",".",2,".",2,".",".",2,".",".",".",4,".",".",".",".",".",".",".","."],[".",".",".",".",".",2,".",".",".",4,".",".",".",".",4,".",".",".",5,".",".",".",".",".",".",".",5,".",".",2,".",".",".",".",".",".",".",2,".",2,".",4,".",4,".",".",4,".",".",".",5],[5,".",".",".",5,".",".",".",2,".",".",".",".",4,".",".",".",5,".",".",".",5,".",".",".",5,".",".",0,".",".",".",5,".",".",".",0,".",".",".",2,".",".",".",".",4,".",4,".",5,"."],[".",".",".",".",".",".",".",".",".",".",".",".",4,".",".",".",5,".",".",".",0,".",".",".",5,".",".",".",".",".",".",".",".",".",".",".",".",".",".",".",".",".",".",".",4,".",".",".",5,".","."]],[[".",".",".",".",".",".",".",".",".",".",".",".",".",".",".",".",".",".",".",".",".",".",".",".",".",".",".",".",".",".",".",".",".",".",".",".",".",".",".",".",".",".","."],[".",".",".",".",".",".",".",".",".",".",".",".",".",".",".",3,".",".",".",".",".",".",".",".",".",".",".",".",".",".",".",".",".",".",".",".",".",".",".",".",".",".","."],[".",".",".",2,".",".",".",".",".",".",".",2,".",".",2,".",2,".",".",2,".",".",".",4,".",".",".",".",".",".",".",".",".",".",".",2,".",".",".",".",".",".","."],[".",".",".",".",".",".",".",5,".",".",2,".",2,".",".",".",".",".",2,".",2,".",4,".",4,".",".",4,".",5,".",5,".",0,".",".",".",5,".",5,".",".",2],[5,".",5,".",5,".",5,".",5,0,".",".",".",5,".",".",".",0,".",".",".",2,".",".",".",".",4,".",4,".",5,".",5,".",5,".",5,".",5,".",5,0,"."],[".",0,".",".",".",5,".",".",".",".",".",".",".",".",".",".",".",".",".",".",".",".",".",".",".",2,".",".",".",".",".",".",".",".",".",".",".",".",".",".",".",".","."]],[[],[],[],[],[],[]]],"numberofstrings":6,"notes":["E","B","G","D","A","D"],"capo":0,"stringnotes":["E3","B2","G2","D2","A1","D1"],"comments":["Stave 1: Guitar 1","Stave 2: Guitar 1 Continue","Stave 3:"],"timing":[["W","W","W","W","W","W","W","W","W","W","W","W","W","W","W","W","W","W","W","W","W","W","W","W","W","W","W","W","W","W","W","W","W","W","W","W","W","W","W","W","W","W","W","W","W","W","W","W","W","W","W"],["W","W","W","W","W","W","W","W","W","W","W","W","W","W","W","W","W","W","W","W","W","W","W","W","W","W","W","W","W","W","W","W","W","W","W","W","W","W","W","W","W","W","W"],[]],"timingvisible":false,"tabcounter":43,"stave":1,"totalstaves":3,"instrument":"6guitar","selectedtuning":"Drop D","version":"13"}

Member for

5 months
Submitted by xQue on Wed, 2022-01-12 22:52