Sound will begin in 5 seconds

Distorted Fragments OF The Humanoid Intellect

01234567891011121314151617181920212223
E
B
G
D
A
E
B
0 1 2 3 4 5 6 7 8 9 10 11 12 13 14 15 16 17 18 19 20 21 22 23
Song Science #1: How Pros Use 6 Chords to Write Hit Songs
(/) Slide Up  (\) Slide Down  (h) Hammer On  (p) Pull Off  (b) Bend (r) Release (v) Vibrato

Stave 1:

E|-----------------------------------------------------------
B|-----------------------------------------------------------
G|-----------------------------------------------------------
D|-------------------------------------------------5-------6-
A|-----------------2-------3-----------------5-6-8---8-6-5---
E|-2-3-2-3-2-3-3-5---5-3-2---2-3-2-3-2-3-3-5-----------------

Stave 2:

E|-----------------------------------------------------------------------------------------
B|-----------------------------------------------------------------------------------------
G|-----------------------------------------------------------------------------------------
D|---------------------------------------------------------------------5-----6-------------
A|-------------------5-------6-5-6-------7---8---5-----------------5-6---6-5-----7---8---7-
E|-5-6-5-6-5-6-5-6-8---8-6-5-------8-6-5---6---3---3-3-3-3-8-8-8-8-------------5---6---5---

Stave 3:

E|-----------------------------------------------------------
B|-----------------------------------------------------------
G|-----------------------------------------------------------
D|-------------------------------------------------5-------6-
A|-----------------2-------3-----------------5-6-8---8-6-5---
E|-2-3-2-3-2-3-3-5---5-3-2---2-3-2-3-2-3-3-5-----------------

Stave 4:

E|-----
B|-----
G|-----
D|-----
A|---2-
E|-0---

Stave 5:

E|-----
B|-----
G|-----
D|-----
A|---3-
E|-1---

Stave 6:

E|-----
B|-----
G|-----
D|-----
A|---0-
E|-0---

Stave 7:

E|-----
B|-----
G|-----
D|-----
A|---7-
E|-5---

Stave 8:

E|-----
B|-----
G|-----
D|-----
A|---9-
E|-7---

Stave 9:

E|-----
B|-----
G|-----
D|-----
A|---6-
E|-0---

Stave 10:

E|-----------------------------------------
B|-----------------------------------------
G|-----------------------------------------
D|-----------------------------------------
A|---2---2---2---3-----4-----3-----5-----4-
E|-0---0---0---1---0-2---0-1---0-3---0-2---

Stave 11:

E|-----
B|-----
G|-----
D|-----
A|---2-
E|-0---

Stave 12:

E|-----------------------------------------------------
B|-----------------------------------------------------
G|-------------------10-11---8---7-8----------------14-
D|-----------------9-------7---5--------------12-12----
A|---2---0---3---0-------------------12-14-15----------
E|-0---0---1---0---------------------------------------

Stave 13:

E|--------------------------------------------------------------------------------------------------------
B|--------------------------------------------------------------------------------------------------------
G|------------------------------------------------------------------------------------------------------7-
D|---------------------------------------------------------------------------------------------7-8-10-9---
A|-------------------------------------------------------------2-----3-------------1-----5-7-8------------
E|-10-10-10-10-0-10-10-10-0-10-10-10-10-11-11-11-11-10-0-2-3-5---3-2---3-5-0-1-2-4---2-1------------------

Stave 14:

E|-
B|-
G|-
D|-
A|-
E|-

http://www.guitartabcreator.com
Guitar Tab Creator is intended to store guitar tab created through the tool. It currently does not support in-line text editing. Any text you place in here will be lost. If you need to comment on your tab, please use the "Tab Notes" section located below.