Sound will begin in 5 seconds

Coming back to life / Pink Floyd

01234567891011121314151617181920212223
E
B
G
D
A
E
B
0 1 2 3 4 5 6 7 8 9 10 11 12 13 14 15 16 17 18 19 20 21 22 23
Song Science #1: How Pros Use 6 Chords to Write Hit Songs
(/) Slide Up  (\) Slide Down  (h) Hammer On  (p) Pull Off  (b) Bend (r) Release (v) Vibrato

Stave 1:

E|---------------------------------------------------------------------------------
B|---------------------------------------------------------------------------------
G|--------7b9--9--9b11r7b9v-----5--7--7b9r7-----5--5v-----5--7b9r7p5-----5h7p5-----
D|--5--5---------------------5-------------------------7--------------7------------
A|---------------------------------------------------------------------------------
E|---------------------------------------------------------------------------------

Stave 2:

E|----------------------------------------------------------------------
B|----------------------------------------------------------------------
G|--7b9--7--5\4--5/7--5--4-----5-----4----------------------------------
D|--------------------------7-----7-----5--5/7--5-----------------------
A|-------------------------------------------------7\3--5-----5--3v-----
E|---------------------------------------------------------5------------

Stave 3:

E|---------------------------------------------------------------------------------------------
B|----------15b17--17--17v------13--15--15b17r15--------------13------15b17--13--15--13--------
G|--12--12------------------12--------------------12v--12/14------14---------------------------
D|---------------------------------------------------------------------------------------------
A|---------------------------------------------------------------------------------------------
E|---------------------------------------------------------------------------------------------

Stave 4:

E|-----
B|-----
G|-----
D|-----
A|-----
E|-----

http://www.guitartabcreator.com
Guitar Tab Creator is intended to store guitar tab created through the tool. It currently does not support in-line text editing. Any text you place in here will be lost. If you need to comment on your tab, please use the "Tab Notes" section located below.