Sound will begin in 5 seconds

Back in Black solo

01234567891011121314151617181920212223
E
B
G
D
A
E
B
0 1 2 3 4 5 6 7 8 9 10 11 12 13 14 15 16 17 18 19 20 21 22 23
Song Science #1: How Pros Use 6 Chords to Write Hit Songs
(/) Slide Up  (\) Slide Down  (h) Hammer On  (p) Pull Off  (b) Bend (r) Release (v) Vibrato

Stave 1:

E|---------------------------------------------------------------------------------------------
B|---------------------------------------------------------------------------------------------
G|-----------------------------------------0--2b4--2--0--2-----------------------------------
D|-----------------------------------x--2---------------------2--------------------------------
A|-----7--------5--------4--------x------------------------------------------------------------
E|--0--------0--------0--------x---------------------------------------------------------------

Stave 2:

E|---------------------------------------------------------------------------
B|---------------------------------------------------------------------------
G|--------------------------------7--7--7--7--7b9--------------------------
D|-----------------------------x---------------------------------------------
A|-----7--------5--------4---------------------------------------------------
E|--0--------0--------0------------------------------------------------------

Stave 3:

E|------------------------------------------------------------
B|-------8----------------8--10b12--10--8--10--8--------------
G|--7b9-----7---/9--------------------------------9-----9-----
D|---------------------------------------------------9--------
A|-------------0----------------------------------------------
E|------------------------------------------------------------

Stave 4:

E|--
B|--
G|--
D|--
A|--
E|--

http://www.guitartabcreator.com
Guitar Tab Creator is intended to store guitar tab created through the tool. It currently does not support in-line text editing. Any text you place in here will be lost. If you need to comment on your tab, please use the "Tab Notes" section located below.