Sound will begin in 5 seconds

Running Behind Guitars

Chords
01234567891011121314151617181920212223
E
B
G
D
A
E
B
0 1 2 3 4 5 6 7 8 9 10 11 12 13 14 15 16 17 18 19 20 21 22 23
Song Science #1: How Pros Use 6 Chords to Write Hit Songs
(/) Slide Up  (\) Slide Down  (h) Hammer On  (p) Pull Off  (b) Bend (r) Release (v) Vibrato

Stave 1:

E|---------------
B|--10--9--7--9--
G|--9---9--9--9--
D|---------------
A|---------------
E|---------------

Stave 2:

E|--------------
B|--------------
G|-----6--4--2--
D|--2--6--4--2--
A|--2--4--2--0--
E|--2-----------

Stave 3:

E|--------------
B|--------------
G|-----6--2--4--
D|--2--6--2--4--
A|--2--4--0--2--
E|--2-----------

Stave 4:

E|--------------
B|--------------
G|-----------4--
D|--4--7--2--4--
A|--4--7--2--2--
E|--4--7--2-----

Stave 5:

E|--------------------------------------------------------------------------------------
B|--------------------------------------------------------------------------------------
G|--11--11--11--11--13--11--------------11--11--11--11--13--11--------------11--11--11--
D|--------------------------14--14--14--------------------------14--14--14--------------
A|--------------------------------------------------------------------------------------
E|--------------------------------------------------------------------------------------

Stave 6:

E|--------------------------------------------------------------
B|--------------------------------------------------------------
G|--11--13--14--13--11--13--11--11--11--11--13--14--13--11--13--
D|--------------------------------------------------------------
A|--------------------------------------------------------------
E|--------------------------------------------------------------

Stave 7:

E|---------------------------------------------------------------------
B|---------------------------------------------------------------------
G|--9--11--13--11--9--13--11--16--16--14--13--11--13--13--11--9--8--9--
D|---------------------------------------------------------------------
A|--7--9---11--9---7--11--9---14--14--12--11--9---11--11--9---7--6--7--
E|---------------------------------------------------------------------

Stave 8:

E|---------------7-----------7-----------
B|--10--9--7--9--------7-----------7-----
G|--9---9--9--9-----9-----9-----9-----9--
D|---------------------------------------
A|---------------------------------------
E|---------------------------------------

Stave 9:

E|--------------------------------
B|--------------------------------
G|-----------4--------------------
D|--4--7--2--4--9--9--9--9--7--9--
A|--4--7--2--2--7--9--7--9--7--9--
E|--4--7--2-----6--7--6--9--7--9--

Stave 10:

E|----------------
B|----------------
G|---------9--11--
D|--9--9---7--9---
A|--7--11---------
E|----------------

http://www.guitartabcreator.com
Guitar Tab Creator is intended to store guitar tab created through the tool. It currently does not support in-line text editing. Any text you place in here will be lost. If you need to comment on your tab, please use the "Tab Notes" section located below.