Sound will begin in 5 seconds

Tab

Chords
01234567891011121314151617181920212223
E
B
G
D
A
E
B
0 1 2 3 4 5 6 7 8 9 10 11 12 13 14 15 16 17 18 19 20 21 22 23
Song Science #1: How Pros Use 6 Chords to Write Hit Songs
(/) Slide Up  (\) Slide Down  (h) Hammer On  (p) Pull Off  (b) Bend (r) Release (v) Vibrato

Stave 1:

E|---------8--10--11--10--8-----------------6--8--6------------------------------8--10--11--10--8-----13/15--
B|------8--------------------8--9/11-----6-----------9--8--9--8--6------------8--------------------8---------
G|------------------------------------------------------------------8--7-------------------------------------
D|--10--------------------------------8-----------------------------------10---------------------------------
A|-----------------------------------------------------------------------------------------------------------
E|-----------------------------------------------------------------------------------------------------------

Stave 2:

E|--6--6-----3--10-----8---
B|--6-----6--3------8--8---
G|--7--------4---------8---
D|---------------------10--
A|-------------------------
E|-------------------------

Stave 3:

E|--8---8---8---------8---8---8------------------------------------------------8---8---8---------8---8---8---
B|--8---8---8---------9---9---9---------6--6--6--------8---8---8---8---8---8---8---8---8---------9---9---9---
G|--8---8---8---------8---8---8---------7--7--7--------7---7---7---7---7---7---8---8---8---------8---8---8---
D|--10--10--10--------10--10--10--------8--8--8--------9---9---9---9---9---9---10--10--10--------10--10--10--
A|-----------------------------------------------------10--10--10--10--10--10--------------------------------
E|-----------------------------------------------------------------------------------------------------------

Stave 4:

E|--------------------------------------------
B|-----6--6--6--------8---8---8---8---8---8---
G|-----7--7--7--------7---7---7---7---7---7---
D|-----8--8--8--------9---9---9---9---9---9---
A|--------------------10--10--10--10--10--10--
E|--------------------------------------------

Stave 5:

E|--15------15--13------13--15------15--13------13--15------15--13------13--10-----10--11-----11--15------15--
B|------13----------11----------13----------11----------13----------11----------8----------8----------13------
G|------------------------------------------------------------------------------------------------------------
D|------------------------------------------------------------------------------------------------------------
A|------------------------------------------------------------------------------------------------------------
E|------------------------------------------------------------------------------------------------------------

Stave 6:

E|--13------13--11--13--
B|------11--------------
G|----------------------
D|----------------------
A|----------------------
E|----------------------

Stave 7:

E|---------------------------------------------------------------------------------------------------------------------------------
B|---------------------------------------------------------------------------------------------------------------------------------
G|--8--10--12--15--19--17--15--12--15--13--12--10--19--17--15--12--15--13--12--19--17--15--12--15--13--12--10--19--17--15--12--15--
D|---------------------------------------------------------------------------------------------------------------------------------
A|--6--8---10--13--17--15--13--10--13--11--10--8---17--15--13--10--13--11--10--17--15--13--10--13--11--10--8---17--15--13--10--13--
E|---------------------------------------------------------------------------------------------------------------------------------

Stave 8:

E|--------------------------------------
B|--------------------------------------
G|--5--4--5--5--4--5--8--7--8--7--5--7--
D|--------------------------------------
A|--3--2--3--3--2--3--6--5--6--5--3--5--
E|--------------------------------------

Stave 9:

E|--------------------------------------------------------------------
B|--------------------------------------------------------------------
G|--5--------3--------5--------5--------3--------3--------3--------3--
D|--5--------3--------5--------5--------3--------3--------3--------3--
A|--3--------1--------3--------3--------1--------1--------1--------1--
E|--------------------------------------------------------------------

Stave 10:

E|------18--16--15--16--15----------------------15------18--16--15--16--15----------------------15------18--16--15--16--15----------------------15------
B|--16----------------------18--16--15--16--18------16----------------------18--16--15--16--18------16----------------------18--16--15--16--18------16--
G|------------------------------------------------------------------------------------------------------------------------------------------------------
D|------------------------------------------------------------------------------------------------------------------------------------------------------
A|------------------------------------------------------------------------------------------------------------------------------------------------------
E|------------------------------------------------------------------------------------------------------------------------------------------------------

Stave 11:

E|-----------------------------
B|-----------------------------
G|-----------------------------
D|--6--------------2-----------
A|-----------------------------
E|-----------------------------

Stave 12:

E|-----------------------
B|-----------------------
G|-----------------------
D|-----------------------
A|-----------------------
E|--8--11--10--8--10--8--

http://www.guitartabcreator.com
Guitar Tab Creator is intended to store guitar tab created through the tool. It currently does not support in-line text editing. Any text you place in here will be lost. If you need to comment on your tab, please use the "Tab Notes" section located below.