Sound will begin in 5 seconds

There is Nothing

Chords
01234567891011121314151617181920212223
E
B
G
D
A
E
B
0 1 2 3 4 5 6 7 8 9 10 11 12 13 14 15 16 17 18 19 20 21 22 23
Song Science #1: How Pros Use 6 Chords to Write Hit Songs
(/) Slide Up  (\) Slide Down  (h) Hammer On  (p) Pull Off  (b) Bend (r) Release (v) Vibrato

Stave 1:

E|-------------------------------------------------5---6---8---10---11---13----15----
B|-----5---6---8-------6---5-----------5---6---8------------------8----8----11----13-
G|-7---------------7-----------7---7-----------------7---7---7-----------------------
D|-0-----0---0---0-0-----0---0---0-0-----0---0---0-----------------------------------
A|---5---------------5---------------5-----------------------------------------------
E|-----------------------------------------------------------------------------------

Stave 2:

E|----------
B|----------
G|-9-10-8-9-
D|-9-10-8-9-
A|-7-8--6-7-
E|----------

Stave 3:

E|-----------------------------12-12-----------------------------------------
B|------------------10-8-10-12-------12-12-------10-10-7-7-9-9-6-6-7-7-4-4-5-
G|-9-10-8-10-12-9-9------------------------12-12-----------------------------
D|-9-10-8-10-12--------------------------------------------------------------
A|-7-8--6-8--10--------------------------------------------------------------
E|---------------------------------------------------------------------------

Stave 4:

E|---------------------------------------------------------------------12-12-----------------------------------------
B|----------------------------------------------------------10-8-10-12-------12-12-------10-10-7-7-9-9-6-6-7-7-4-4-5-
G|------------------------------------------------------9-9------------------------12-12-----------------------------
D|-0-0-8-0-10-0-12-0-13-0-15-0-17-0-19-0-20-0-22-0-23-0--------------------------------------------------------------
A|-------------------------------------------------------------------------------------------------------------------
E|-------------------------------------------------------------------------------------------------------------------

Stave 5:

E|-------------------21-21-------------------------------------------------------
B|-------19-17-19-21-------21-21-------19-19-16-16-18-18-15-15-16-16-13-13-14-14-
G|-18-18-------------------------21-21-------------------------------------------
D|-------------------------------------------------------------------------------
A|-------------------------------------------------------------------------------
E|-------------------------------------------------------------------------------

Stave 6:

E|-0---------0---------0---------0-----------12------15-17-0---------0---------0---------
B|---5---------5---------7---------7-------------------------7---------5---------5-------
G|-----7---------7---------0---------0----------11-9-----------0---------7---------7-----
D|-------0---------0---------9---------9-------------------------9---------7---------7---
A|-------------------5-------------------7-------------------------7---------0---------5-
E|---------6-------------------8-----------7---------------------------------------------

Stave 7:

E|----------------12-12-----------------------------------------------------------21-21-------------
B|-----10-8-10-12-------12-12-------10-10-7-7-9-9-6-6-7-7-4-4-5-------19-17-19-21-------21-21-------
G|-9-9------------------------12-12-----------------------------18-18-------------------------21-21-
D|--------------------------------------------------------------------------------------------------
A|--------------------------------------------------------------------------------------------------
E|--------------------------------------------------------------------------------------------------

http://www.guitartabcreator.com
Guitar Tab Creator is intended to store guitar tab created through the tool. It currently does not support in-line text editing. Any text you place in here will be lost. If you need to comment on your tab, please use the "Tab Notes" section located below.