Sound will begin in 5 seconds

Propaganda 02

Chords
01234567891011121314151617181920212223
E
B
G
D
A
E
B
0 1 2 3 4 5 6 7 8 9 10 11 12 13 14 15 16 17 18 19 20 21 22 23
Song Science #1: How Pros Use 6 Chords to Write Hit Songs
(/) Slide Up  (\) Slide Down  (h) Hammer On  (p) Pull Off  (b) Bend (r) Release (v) Vibrato

Stave 1:

E|-19-------17-------15-------15----17----19-------17-------15-------15----17----
B|----17-17----17-17----17-17----17----17----17-17----17-17----17-17----17----17-
G|-------------------------------------------------------------------------------
D|-------------------------------------------------------------------------------
A|-------------------------------------------------------------------------------
E|-------------------------------------------------------------------------------

Stave 2:

E|-------------------------------------------------------------------------
B|-17-------17-------17-------17-------17-------17-------17-------17-------
G|----17-17----16-16----------------------17-17----16-16-------------------
D|----------------------17-17----16-16----------------------17-17----16-16-
A|-------------------------------------------------------------------------
E|-------------------------------------------------------------------------

Stave 3:

E|----------------------17-19-20-22-22-20-19-17----------------
B|-------------17-19-20-------------------------17-15-15-15r17-
G|-------16-17-------------------------------------------------
D|-16-17-------------------------------------------------------
A|-------------------------------------------------------------
E|-------------------------------------------------------------

Stave 4:

E|-----------------------------------------------------------------------------
B|-----------------------------------------------------------------------------
G|-----------------------------------------------------------------------------
D|-----------------------------------------------------------------------------
A|-----------------------------------------------------------------------------
E|-19-0-0-17-0-0-15-0-0-14-0-0-15-0-17-0-19-0-0-17-0-0-15-0-0-14-0-0-15-0-17-0-

Stave 5:

E|--------------------------------
B|--------------------------------
G|--------------------------------
D|--------------------------------
A|--------------------------------
E|-19-0-0-17-0-0-15-0-0-14-0-0-12-

Stave 6:

E|----------------------------------------------------------------------------------
B|----------------------------------------------------------------------------------
G|----------------------------------------------------------------------------------
D|----------------------------------------------15-15-15-15-15----------------------
A|----17-17-17-17-17-------17-17-17-17-17----13-------------------13-15-15-15-15-15-
E|-17----------------15-17----------------13-------------------13-------------------

Stave 7:

E|-
B|-
G|-
D|-
A|-
E|-

Stave 8:

E|-------------
B|-------------
G|-------------
D|-14-15-17-19-
A|-14-15-17-19-
E|-12-13-15-17-

Stave 9:

E|------------------------19-------------------------------------------------------------
B|------------17-17-17-17----------------22----------------------------------------------
G|---------------------------19-19-19-19----------------22-------------------------------
D|------------------------------------------19-19-19-19----------------22----------------
A|---------------------------------------------------------19-19-19-19----17-15-15-14----
E|-0-0-0-0-12-------------------------------------------------------------------------12-

Stave 10:

E|-
B|-
G|-
D|-
A|-
E|-

http://www.guitartabcreator.com
Guitar Tab Creator is intended to store guitar tab created through the tool. It currently does not support in-line text editing. Any text you place in here will be lost. If you need to comment on your tab, please use the "Tab Notes" section located below.