Sound will begin in 5 seconds

Kseop 06

Chords
01234567891011121314151617181920212223
E
B
G
D
A
E
B
0 1 2 3 4 5 6 7 8 9 10 11 12 13 14 15 16 17 18 19 20 21 22 23
Song Science #1: How Pros Use 6 Chords to Write Hit Songs
(/) Slide Up  (\) Slide Down  (h) Hammer On  (p) Pull Off  (b) Bend (r) Release (v) Vibrato

Stave 1:

E|-------------------------19-19-19-19-----------------------------
B|-12-12-12-12-17-17-17-17-------------12-12-12-12-----------------
G|-----------------------------------------------------------------
D|-------------------------------------------------9-9-9-9-7-7-7-7-
A|-----------------------------------------------------------------
E|-----------------------------------------------------------------

Stave 2:

E|---------
B|---------
G|-4-9-----
D|-4-9-9---
A|-2-7-9-2-
E|-----7-0-

Stave 3:

E|-19-19----19-19----20-20----19----20-20----19-19----19-19----20-20----19----20-20----
B|-------17-------17-------17----17-------17-------------------------------------------
G|-------------------------------------------------19-------19-------19----19-------19-
D|-------------------------------------------------------------------------------------
A|-------------------------------------------------------------------------------------
E|-------------------------------------------------------------------------------------

Stave 4:

E|-19-------19-------20-------19----20-------19-------19-------20-------19----20-20----
B|----17-17----17-17----17-17----17----17-17-------------------------------------------
G|----------------------------------------------19-19----19-19----19-19----19-------19-
D|-------------------------------------------------------------------------------------
A|-------------------------------------------------------------------------------------
E|-------------------------------------------------------------------------------------

Stave 5:

E|-19-------19-------20-------19----20-20----19-------19-------20-------19----20-20----
B|-------------------------------------------------------------------------------------
G|----17-17----17-17----17-17----17-------17----16-16----16-16----16-16----16-------16-
D|-------------------------------------------------------------------------------------
A|-------------------------------------------------------------------------------------
E|-------------------------------------------------------------------------------------

Stave 6:

E|-20-19-19-20-19-19-20-19-22-19-19-
B|----------------------------------
G|----------------------------------
D|----------------------------------
A|----------------------------------
E|----------------------------------

Stave 7:

E|-19-------19-------19----------------------------
B|-------------------------20----21-------22-22----
G|----21-21----21-21----21----21----21-21-------21-
D|-------------------------------------------------
A|-------------------------------------------------
E|-------------------------------------------------

http://www.guitartabcreator.com
Guitar Tab Creator is intended to store guitar tab created through the tool. It currently does not support in-line text editing. Any text you place in here will be lost. If you need to comment on your tab, please use the "Tab Notes" section located below.