Sound will begin in 5 seconds

IMMORTALITATEM ABSOLUT

Chords
01234567891011121314151617181920212223
E
B
G
D
A
E
B
0 1 2 3 4 5 6 7 8 9 10 11 12 13 14 15 16 17 18 19 20 21 22 23
Song Science #1: How Pros Use 6 Chords to Write Hit Songs
(/) Slide Up  (\) Slide Down  (h) Hammer On  (p) Pull Off  (b) Bend (r) Release (v) Vibrato

Stave 1:

E|-----------------------------------------------------------------
B|-----------------------------------------------------------------
G|-----------------------------------------------------------------
D|-9-----9-----9---9-----9-----9---9-----9-----9-------------------
A|---7-7---7-7---7---7-7---7-7---7-----------------9-----9-----9---
E|-----------------------------------8-8---8-8---8---7-7---7-7---7-

Stave 2:

E|----------------------------------------------------------------------
B|----------------------------------------------------------------------
G|------------------------------------9-----9-----9---10-----10-----9---
D|-9-----9-----9---10-----10-----10-------------------------------------
A|---7-7---7-7---7----7-7----7-7----7---7-7---7-7---7----7-7----7-7---7-
E|----------------------------------------------------------------------

Stave 3:

E|----------------------------------------------------------------
B|----------------------------------------------------10-10-10-10-
G|------------------------------------9-----9-----9---------------
D|-9-----9-----9---10-----10-----10-------------------------------
A|---7-7---7-7---7----7-7----7-7----7---7-7---7-7---7-------------
E|----------------------------------------------------------------

Stave 4:

E|-------------------------------------------------------------------------------------------------
B|-------------------------------------------------------------------------------------------------
G|-------------------------------------------------------------------------------------------------
D|-14-------14-------14----14-------14-------14----14-------14-------14----------------------------
A|----12-12----12-12----12----12-12----12-12----12-------------------------14-------14-------14----
E|----------------------------------------------------13-13----13-13----13----12-12----12-12----12-

Stave 5:

E|-------------------------------------------------------------------------------------------------
B|-------------------------------------------------------------------------------------------------
G|-------------------------------------------------14-------14-------14----15-------14-------14----
D|-14-------14-------14----15-------15-------15----------------------------------------------------
A|----12-12----12-12----12----12-12----12-12----12----12-12----12-12----12----12-12----12-12----12-
E|-------------------------------------------------------------------------------------------------

Stave 6:

E|-------------------------------------------------------------------------------------------------------
B|----------------------------------------------------------------------------------------------------15-
G|-------------------------------------------------------------------------14-------14-------14----------
D|-14-------14-------14----14-------14-------14----15-------15-------15----------------------------------
A|----12-12----12-12----12----12-12----12-12----12----12-12----12-12----12----12-12----12-12----12-12----
E|-------------------------------------------------------------------------------------------------------

Stave 7:

E|----------------19---------19-19-19-19-20-------------
B|-16-16-16-16-16---------------------------------------
G|-------------------9-9--------------------14-14-------
D|-------------------9-9-9-9----------------14-14-14-14-
A|-------------------7-7-9-9----------------12-12-14-14-
E|-------------------0-8-0-7----------------0--13-0--12-

Stave 8:

E|----------------------------------------------------------------------------------------------------------------------------
B|-------------------------15-15-15-17-17-15-17-15----------------------------------------------------------------------------
G|-16-16-16-16-16-16-16-16-------------------------16-16-16-16-16-16-16-16-14-14-14-16-16-14-16-14----------------------------
D|-------------------------------------------------------------------------------------------------14-14-14-14-14-14-14-14-14-
A|----------------------------------------------------------------------------------------------------------------------------
E|----------------------------------------------------------------------------------------------------------------------------

Stave 9:

E|-------------------------------------------------------------
B|-------------------------------------------------------------
G|-------------------------------------------------------------
D|-12-12-12-14-14-12-14-12-------------------------------------
A|-------------------------13-13-13-13-13-13-12-12-12-12-12-12-
E|-------------------------------------------------------------

Stave 10:

E|----------------------------------------------------------------------------------------------------
B|-------------------------13-13-13-15-15-13-15-13----------------------------------------------------
G|-14-14-14-14-14-14-14-14-------------------------14-14-14-14-14-14-14-14-12-12-12-14-14-12-14-12----
D|-------------------------------------------------------------------------------------------------12-
A|----------------------------------------------------------------------------------------------------
E|----------------------------------------------------------------------------------------------------

Stave 11:

E|------------------------------------------------------
B|------------------------------------------------------
G|------------------------------------------------------
D|-10-10-10-12-12-10-12---------------------------------
A|----------------------10-11-11-11-11-10-12-10-12-10---
E|----------------------------------------------------0-

Stave 12:

E|-------------------------------------------------15-15-15-15-15-15-15-15-19-19-19-19-19-19-19-19-
B|-------------------------17-17-17-17-17-17-17-17-------------------------------------------------
G|-16-16-16-16-16-16-16-16-------------------------------------------------------------------------
D|-------------------------------------------------------------------------------------------------
A|-------------------------------------------------------------------------------------------------
E|-------------------------------------------------------------------------------------------------

Stave 13:

E|-20-20-20-20-20-20-20-20-17-17-17-17-17-17-17-17-------------------------23-
B|-------------------------------------------------17-17-17-17-17-17-17-17----
G|----------------------------------------------------------------------------
D|----------------------------------------------------------------------------
A|----------------------------------------------------------------------------
E|----------------------------------------------------------------------------

Stave 14:

E|-20-20-17-17-------------19-19-16-16-------------21-21-18-18-------------20-20-17-17-------------
B|-------------19-19-------------------18-18-------------------20-20-------------------19-19-------
G|-------------------18-18-------------------18-18-------------------19-19-------------------19-19-
D|-------------------------------------------------------------------------------------------------
A|-------------------------------------------------------------------------------------------------
E|-------------------------------------------------------------------------------------------------

Stave 15:

E|-22-22-19-19-------------21-21-18-18-------------------------22-22-
B|-------------21-21-------------------20-20-------------22-22-------
G|-------------------20-20-------------------20-20-22-22-------------
D|-------------------------------------------------------------------
A|-------------------------------------------------------------------
E|-------------------------------------------------------------------

Stave 16:

E|-22----------------------------------22-23-22-20-22-
B|----22----------------22-23-22-20-22----------------
G|-------22-19----19-22-------------------------------
D|-------------19-------------------------------------
A|----------------------------------------------------
E|----------------------------------------------------

Stave 17:

E|-------------------------------14-15-0---------0---------12------15-17-0---------
B|----------9---10---14----15------------7---------7-----------------------7-------
G|-9---10----------------------------------0---------0--------11-9-----------9-----
D|-------------------------------------------9---------9-----------------------9---
A|---7----7---7----7-------------------------------------7-----------------------7-
E|----------------------14----14---------------8-----------------------------------

Stave 18:

E|---------------------------------------------23-
B|------------------------------------------------
G|-9-9-----14-14-------16-16-------18-18----------
D|-9-9-9-9-14-14-14-14-16-16-16-16-18-18-18-18----
A|-7-7-9-9-12-12-14-14-14-14-16-16-16-16-18-18----
E|-0-8-0-7-0--13-0--12-0--15-0--14-0--17-0--16----

http://www.guitartabcreator.com
Guitar Tab Creator is intended to store guitar tab created through the tool. It currently does not support in-line text editing. Any text you place in here will be lost. If you need to comment on your tab, please use the "Tab Notes" section located below.