Sound will begin in 5 seconds

Immortalitatem 01

Chords
01234567891011121314151617181920212223
E
B
G
D
A
E
B
0 1 2 3 4 5 6 7 8 9 10 11 12 13 14 15 16 17 18 19 20 21 22 23
Song Science #1: How Pros Use 6 Chords to Write Hit Songs
(/) Slide Up  (\) Slide Down  (h) Hammer On  (p) Pull Off  (b) Bend (r) Release (v) Vibrato

Stave 1:

E|--------------------------------------------------------------------------------------------------
B|--------------------------------------------------------------------------------------------------
G|--------------------------------------------------------------------------------------------------
D|--9--------9--------9-----9--------9--------9-----9--------9--------9-----------------------------
A|-----7--7-----7--7-----7-----7--7-----7--7-----7--------------------------9--------9--------9-----
E|-----------------------------------------------------8--8-----8--8-----8-----7--7-----7--7-----7--

Stave 2:

E|------------------------------------------------------------------------------------------------------
B|------------------------------------------------------------------------------------------------------
G|-----------------------------------------------------9--------9--------9-----10--------9--------9-----
D|--9--------9--------9-----10--------10--------10------------------------------------------------------
A|-----7--7-----7--7-----7------7--7------7--7------7-----7--7-----7--7-----7------7--7-----7--7-----7--
E|------------------------------------------------------------------------------------------------------

Stave 3:

E|--------------------------------------------------------------------------------------------------
B|--------------------------------------------------------------------------------------------------
G|--------------------------------------------------------------------------------------------------
D|--9--------9--------9-----9--------9--------9-----9--------9--------9-----------------------------
A|-----7--7-----7--7-----7-----7--7-----7--7-----7--------------------------9--------9--------9-----
E|-----------------------------------------------------8--8-----8--8-----8-----7--7-----7--7-----7--

Stave 4:

E|---------------------------------------------------------------------------------------------
B|-----------------------------------------------------------------------------10--10--10--10--
G|-----------------------------------------------------9--------9--------9---------------------
D|--9--------9--------9-----10--------10--------10---------------------------------------------
A|-----7--7-----7--7-----7------7--7------7--7------7-----7--7-----7--7-----7------------------
E|---------------------------------------------------------------------------------------------

Stave 5:

E|----------------------------------------------------------------------------------------------------------------------------------
B|----------------------------------------------------------------------------------------------------------------------------------
G|----------------------------------------------------------------------------------------------------------------------------------
D|--14----------14----------14------14----------14----------14------14----------14----------14--------------------------------------
A|------12--12------12--12------12------12--12------12--12------12----------------------------------14----------14----------14------
E|----------------------------------------------------------------------13--13------13--13------13------12--12------12--12------12--

Stave 6:

E|------------------------------------------------------------------------------------------------------------------
B|--------------------------------------------------------------------------------------------------15--15--15--15--
G|------------------------------------------------------------------14----------14----------14----------------------
D|--14----------14----------14------15----------15----------15------------------------------------------------------
A|------12--12------12--12------12------12--12------12--12------12------12--12------12--12------12------------------
E|------------------------------------------------------------------------------------------------------------------

Stave 7:

E|------------------------------
B|--------------------------10--
G|-----------------------9--9---
D|--9----9--0--0--9--10--7--7---
A|--7----7--9--9--7--7---7--7---
E|--0/8--8--8--7--0--0---0------

Stave 8:

E|--
B|--
G|--
D|--
A|--
E|--

http://www.guitartabcreator.com
Guitar Tab Creator is intended to store guitar tab created through the tool. It currently does not support in-line text editing. Any text you place in here will be lost. If you need to comment on your tab, please use the "Tab Notes" section located below.