Sound will begin in 5 seconds

ghost brigade birth

01234567891011121314151617181920212223
E
B
G
D
A
E
B
0 1 2 3 4 5 6 7 8 9 10 11 12 13 14 15 16 17 18 19 20 21 22 23
Song Science #1: How Pros Use 6 Chords to Write Hit Songs
(/) Slide Up  (\) Slide Down  (h) Hammer On  (p) Pull Off  (b) Bend (r) Release (v) Vibrato

Stave 1:

E|-------------------------------------------------------------------------
B|-------4-4-4-3-3-3-------------------------------------------------------
G|-5-5-5-------------------5-5-5-3-3-3-------3-3-3-------------3-3-3-------
D|-------------------5-5-5-------------------------5-5-5-------------------
A|-------------------------------------------------------------------5-5-5-
E|-------------------------------------4-4-4-------------3-3-3-------------

Stave 2:

E|-----------------------------------------------
B|-------4-4-3-3---------------7-7-7-6-6---------
G|-----5---------5-5-4-4-----8-----------8-8-7-7-
D|---5---------------------8---------------------
A|-3---------------------6-----------------------
E|-----------------------------------------------

Stave 3:

E|-13-12-10----
B|----------10-
G|-------------
D|-------------
A|-------------
E|-------------

Stave 4:

E|-
B|-
G|-
D|-
A|-
E|-

Stave 5:

E|-------------
B|-16-18-------
G|-------------
D|-------------
A|-------17----
E|----------15-

http://www.guitartabcreator.com
Guitar Tab Creator is intended to store guitar tab created through the tool. It currently does not support in-line text editing. Any text you place in here will be lost. If you need to comment on your tab, please use the "Tab Notes" section located below.