Sound will begin in 5 seconds

Conclusion 11

Chords
01234567891011121314151617181920212223
E
B
G
D
A
E
B
0 1 2 3 4 5 6 7 8 9 10 11 12 13 14 15 16 17 18 19 20 21 22 23
Song Science #1: How Pros Use 6 Chords to Write Hit Songs
(/) Slide Up  (\) Slide Down  (h) Hammer On  (p) Pull Off  (b) Bend (r) Release (v) Vibrato

Stave 1:

E|-------------------------0-----0-----------------
B|-3-----3-----0-----0-------0-----0---0-----0-----
G|---5-----5-----5-----5-------4-----4---2-----2---
D|-----5-----5-----5-----5-----------------2-----2-
A|-------------------------------------------------
E|-------------------------------------------------

Stave 2:

E|-------------0-----0-----0-----0---------7-----7-
B|-3-----3-------0-----0-----3-----3-----5-----5---
G|---5-----5-------5-----5-----2-----2-4-----4-----
D|-----5-----5-------------------------------------
A|-------------------------------------------------
E|-------------------------------------------------

Stave 3:

E|-------------------------0-0-0-0-0-0-0-0-0-0-0-0-
B|-3-3-3-3-3-3-0-0-0-0-0-0-0-0-0-0-0-0-0-0-0-0-0-0-
G|-0-0-0-0-0-0-4-4-4-4-4-4-------------------------
D|-------------------------------------------------
A|-------------------------------------------------
E|-------------------------------------------------

Stave 4:

E|-------------------------------------
B|-------------------------------------
G|-2-2-2-2-2-2-1-1-1-1-1-1-2-2-2-2-2-2-
D|-0-0-0-0-0-0-0-0-0-0-0-0-2-2-2-2-2-2-
A|-------------------------------------
E|-------------------------------------

Stave 5:

E|-0---------------------------------
B|-0-0-0-0-0-3-3-3-3-3-3-5-5-5-5-5-5-
G|-4-4-4-4-4-2-2-2-2-2-2-4-4-4-4-4-4-
D|-----------------------------------
A|-----------------------------------
E|-----------------------------------

Stave 6:

E|---------
B|---------
G|-5-2-7-9-
D|-5-2-7-9-
A|-3-0-5-7-
E|---------

Stave 7:

E|---
B|---
G|-7-
D|-7-
A|-5-
E|---

Stave 8:

E|----------------------------0-0----------0-0----
B|-15-15-15-16-16-16-17-17-17-----17-17-17--------
G|-0--0--0----------------------------------------
D|----------13-13-13-14-14-14-----14-14-14-----12-
A|---------------------------------------------12-
E|---------------------------------------------10-

Stave 9:

E|-
B|-
G|-
D|-
A|-
E|-

http://www.guitartabcreator.com
Guitar Tab Creator is intended to store guitar tab created through the tool. It currently does not support in-line text editing. Any text you place in here will be lost. If you need to comment on your tab, please use the "Tab Notes" section located below.