Sound will begin in 5 seconds

Absolution

01234567891011121314151617181920212223
E
B
G
D
A
E
B
0 1 2 3 4 5 6 7 8 9 10 11 12 13 14 15 16 17 18 19 20 21 22 23
(/) Slide Up  (\) Slide Down  (h) Hammer On  (p) Pull Off  (b) Bend (r) Release (v) Vibrato

Stave 1:

E|--------------------------------------------------------------------------------------
B|-------------------------------------------------------18-20--------------------------
G|------------19-21------15-0-22-23-23-------------19-21-------19-0---------------------
D|-15-0-19-20-------19-0---------------23-23-19-20------------------19-0-20-22-23-------
A|--------------------------------------------------------------------------------22-22-
E|--------------------------------------------------------------------------------------

Stave 2:

E|---------------------------------------------------------------
B|---------------------------------------------------------------
G|---------------------------------------------------------------
D|-15-0-0-15-0-0-17-19-0-17-19-0-19-20-0-19-20-0-20-22-0-20-22-0-
A|---------------------------------------------------------------
E|---------------------------------------------------------------

Stave 3:

E|-----------------------------------------------------------------
B|-----------------------------------------------------------------
G|-----------------------------------------------------------------
D|-15-17-0-15-17-0-14-15-0-14-15-0-12-14-0-12-14-0-11-12-0-11-12-0-
A|-----------------------------------------------------------------
E|-----------------------------------------------------------------

Stave 4:

E|-------------------------------21----
B|-18----18----18----20-18-21-18----18-
G|----17----18----16-------------------
D|-------------------------------------
A|-------------------------------------
E|-------------------------------------

Stave 5:

E|------------
B|------------
G|------------
D|------------
A|-8---5-8-10-
E|---3--------

Stave 6:

E|-
B|-
G|-
D|-
A|-
E|-

http://www.guitartabcreator.com
Guitar Tab Creator is intended to store guitar tab created through the tool. It currently does not support in-line text editing. Any text you place in here will be lost. If you need to comment on your tab, please use the "Tab Notes" section located below.