SLANDER

01234567891011121314151617181920212223
E
B
G
D
A
E
B
0 1 2 3 4 5 6 7 8 9 10 11 12 13 14 15 16 17 18 19 20 21 22 23
(/) Slide Up  (\) Slide Down  (h) Hammer On  (p) Pull Off  (b) Bend (r) Release (v) Vibrato

Stave 1:

Db|--------------------------|--------------------------------------------|--
Ab|--------------------------|--------------------------------------------|--
E |--------------------------|--------------------------------------------|--
Gb|--0--------0--0--0--------|--0--0--0--0--------0--0--0--------0--0-----|--
Db|--0--------0--0--0--------|--0--0--0--0--------0--0--0--------0--0-----|--
Gb|--0--------0--0--0--------|--0--0--0--0--------0--0--0--------0--0-----|--

Stave 2:

Db|-----------------------------|-----------------------------------------------|--
Ab|-----------------------------|-----------------------------------------------|--
E |-----------------------------|-----------------------------------------------|--
Gb|--8--8--8--8--------8-----8--|--3--3--3--3-----3--3--3--5--5-----5--1-----1--|--
Db|--8--8--8--8--------8-----8--|--3--3--3--3-----3--3--3--5--5-----5--1-----1--|--
Gb|--8--8--8--8--------8-----8--|--3--3--3--3-----3--3--3--5--5-----5--1-----1--|--

Stave 3:

Db|--------------------------|--------------------------------------------|--
Ab|--------------------------|--------------------------------------------|--
E |--------------------------|--------------------------------------------|--
Gb|--0--------0--0--0--------|--0--0--0--0--------0--0--0--------0--0-----|--
Db|--0--------0--0--0--------|--0--0--0--0--------0--0--0--------0--0-----|--
Gb|--0--------0--0--0--------|--0--0--0--0--------0--0--0--------0--0-----|--

Stave 4:

Db|-----------------------------------------|-----------------------------------------------------------|-----------------|--
Ab|-----------------------------------------|-----------------------------------------------------------|-----------------|--
E |-----------------------------------------|-----------------------------------------------------------|-----------------|--
Gb|--8--8--8--8--------8--8--8--8-----8--8--|-----------------------------------------------------------|-----------------|--
Db|--8--8--8--8--------8--8--8--8-----8--8--|------------------------------10--8------------------------|-----------------|--
Gb|--8--8--8--8--------8--8--8--8-----8--8--|--10--10--10--10--10--10--10---------10-----12--13-----13--|--0--------------|--

Stave 5:

Db|--12--------------------------12---------------------------------15----------------------17----------------|--
Ab|---------10---------10---------------10---------13-----12---------------15----------------------17---------|--
E |----------------12--------------------------12---------------------------------12----------------------14--|--
Gb|-----------------------------------------------------------------------------------------------------------|--
Db|-----------------------------------------------------------------------------------------------------------|--
Gb|-----------------------------------------------------------------------------------------------------------|--

Stave 6:

Db|--12--------------------------12----------------------------------------15---------------17------------17--|-----------------|--
Ab|---------10---------10---------------10---------13-----12--------15-----------------------------17---------|-----------------|--
E |----------------12--------------------------12---------------------------------12--------------------------|-----------------|--
Gb|-----------------------------------------------------------------------------------------------------------|-----------------|--
Db|-----------------------------------------------------------------------------------------------------------|-----------------|--
Gb|-----------------------------------------------------------------------------------------------------------|--0--------------|--

Stave 7:

Db|--------------------------------------------------------------------------------------------------|--
Ab|--------------------------------------------------------------------------------------------------|--
E |--------------------------------------------------------------------------------------------------|--
Gb|--------------------------------------------------------------------------------------------------|--
Db|--6-----5-----------------6-----5-----------------6-----5-----------------------------------------|--
Gb|-----0-----0--7--8--5--0-----0-----0--7--8--5--0-----0-----0--7--8--5--0--1--0--0--1--0--0--1--0--|--

Stave 8:

Db|-----------------------------------------------------------------------------------------------|--
Ab|-----------------------------------------------------------------------------------------------|--
E |-----------------------------------------------------------------------------------------------|--
Gb|-----------------------------------------------------------------------------------------------|--
Db|--6-----5-----------------6-----5-----------------6-----5--------------------------------------|--
Gb|-----0-----0--7--8--5--0-----0-----0--7--8--5--0-----0-----0--7--8--5--0--0--0-----0-----0--0--|--

Stave 9:

Db|--12--10--8------------------10--12--8------------------|--
Ab|-------------10-------------------------10--------------|--
E |--------------------------------------------------------|--
Gb|--------------------------------------------------------|--
Db|--------------------------------------------------------|--
Gb|-----------------7--8--5--0-----------------7--8--5--0--|--

Stave 10:

Db|------------------------------------------------------------------------------------------------------|--
Ab|------------------------------------------------------------------------------------------------------|--
E |------------------------------------------------------------------------------------------------------|--
Gb|--13r0--12r0--------13r0--12r0--------------5v--5v--/13r0--12r0--------13r0--12r0---------------------|--
Db|------------------------------------------------------------------------------------------------------|--
Gb|--------------0--0--------------0--0--0--0-----------------------0--0--------------0--0--1b2r0--0--0--|--

Stave 11:

Db|------------------------------------------------------------------------------------------------------|--
Ab|------------------------------------------------------------------------------------------------------|--
E |--------------------------------------5v--5v--5v--5v--------------------------3v--3v--3v--3v--3v--3v--|--
Gb|--13r0--12r0--------13r0--12r0------------------------13r0--12r0--------13r0--------------------------|--
Db|------------------------------------------------------------------------------------------------------|--
Gb|--------------0--0--------------0--0------------------------------0--0--------------------------------|--

Stave 12:

Db|------------------------------------------------------------------------------------------------------|--
Ab|------------------------------------------------------------------------------------------------------|--
E |------------------------------------------------------------------------------------------------------|--
Gb|------------------------------------------------------------------------------------------------------|--
Db|--------------0--0--------------0--0--0--0-----------------------0--0---------------------------------|--
Gb|--------------0--0--------------0--0--0--0-----------------------0--0--------------0--0--1b2r0--0--0--|--

Stave 13:

Db|------------------------------------------------------------------------------------------------------|--
Ab|------------------------------------------------------------------------------------------------------|--
E |------------------------------------------------------------------------------------------------------|--
Gb|------------------------------------------------------------------------------------------------------|--
Db|--------------0--0--------------0--0-----------------------------0--0---------------------------------|--
Gb|--------------0--0--------------0--0-----------------------------0--0--------1b2r0--0--0--0--0--0--0--|--

Stave 14:

Db|------------------------------------------------------------------------------------------------------|--
Ab|------------------------------------------------------------------------------------------------------|--
E |------------------------------------------------------------------------------------------------------|--
Gb|------------------------------------------------------------------------------------------------------|--
Db|--0--0--0--0--------0--0--0--0-----------------------0--0--0--0--------0--0--0--0---------------------|--
Gb|--0--0--0--0--------0--0--0--0-----------------------0--0--0--0--------0--0--0--0--0--0--1b2r0--0--0--|--

Stave 15:

Db|------------------------------------------------------------------------------------------------------|--
Ab|------------------------------------------------------------------------------------------------------|--
E |------------------------------------------------------------------------------------------------------|--
Gb|------------------------------------------------------------------------------------------------------|--
Db|--0--0--0--0--------0--0--0--0-----------------------0--0--0--0--------0--0---------------------------|--
Gb|--0--0--0--0--------0--0--0--0-----------------------0--0--0--0--------0--0--1b2r0--0--0--0--0--0--0--|--

Stave 16:

Db|---------------------------------------------------------------------------------------|--
Ab|---------------------------------------------------------------------------------------|--
E |---------------------------------------------------------------------------------------|--
Gb|---------------------------------------------------------------------------------------|--
Db|--------------------------5-----------3h5--------------------------3h6-----------------|--
Gb|--0--0-----0--------0--0-----0-----0-------0--0-----0--------0--0-------0--0-----1-----|--

Stave 17:

Db|----------------------------------------------------------------------------------------|--
Ab|----------------------------------------------------------------------------------------|--
E |----------------------------------------------------------------------------------------|--
Gb|----------------------------------------------------------------------------------------|--
Db|----------------------------------10--8-------------------------------------------------|--
Gb|---/8--8--8--8-----8--8-----8------------10--12--12--12--12-----0--1--0--0-----0-----1--|--

Stave 18:

Db|-----------------------------|-----------------------------|-----------------------------|--
Ab|-----------------------------|-----------------------------|-----------------------------|--
E |-----------------------------|-----------------------------|-----------------------------|--
Gb|-----------------------------|-----------------------------|-----------------------------|--
Db|-----------------------------|-----------------------------|-----------------------------|--
Gb|--0--------------------------|--0--------------------------|--0--------------------------|--

Stave 19:

Db|---------------------------------------------------------------------------------------|--
Ab|---------------------------------------------------------------------------------------|--
E |---------------------------------------------------------------------------------------|--
Gb|---------------------------------------------------------------------------------------|--
Db|--------------------------5-----------3h5--------------------------3h6-----------------|--
Gb|--0--0-----0--------0--0-----0-----0-------0--0-----0--------0--0-------0--0-----1-----|--

Stave 20:

Db|--------------------------------------------------------------------------------------------|-----------------------|--
Ab|--------------------------------------------------------------------------------------------|-----------------------|--
E |--------------------------------------------------------------------------------------------|-----------------------|--
Gb|--------------------------------------------------------------------------------------------|-----------------------|--
Db|-----------------------------------6--5-----5--------3--------1-----0-----------------------|-----------------------|--
Gb|--0--0--0--0--------0--0-----0-----------0-----0--0-----0--0-----0-----0--5--0--3--0--1--0--|--0--------------------|--

							http://www.guitartabcreator.com
Chords

Tab Notes
Originally played on a 7 string. Tabbed for 6 string minus the middle B string
Instruments
{"strings":[[[".","_","_",".",".",".","_","_","|",".",".",".",".","_","_",".",".",".","_","_",".",".","_","|"],[".","_","_",".",".",".","_","_","|",".",".",".",".","_","_",".",".",".","_","_",".",".","_","|"],[".","_","_",".",".",".","_","_","|",".",".",".",".","_","_",".",".",".","_","_",".",".","_","|"],[0,"_","_",0,0,0,"_","_","|",0,0,0,0,"_","_",0,0,0,"_","_",0,0,"_","|"],[0,"_","_",0,0,0,"_","_","|",0,0,0,0,"_","_",0,0,0,"_","_",0,0,"_","|"],[0,"_","_",0,0,0,"_","_","|",0,0,0,0,"_","_",0,0,0,"_","_",0,0,"_","|"]],[[".",".",".",".","_","_",".","_",".","|",".",".",".",".","_",".",".",".",".",".","_",".",".","_",".","|"],[".",".",".",".","_","_",".","_",".","|",".",".",".",".","_",".",".",".",".",".","_",".",".","_",".","|"],[".",".",".",".","_","_",".","_",".","|",".",".",".",".","_",".",".",".",".",".","_",".",".","_",".","|"],[8,8,8,8,"_","_",8,"_",8,"|",3,3,3,3,"_",3,3,3,5,5,"_",5,1,"_",1,"|"],[8,8,8,8,"_","_",8,"_",8,"|",3,3,3,3,"_",3,3,3,5,5,"_",5,1,"_",1,"|"],[8,8,8,8,"_","_",8,"_",8,"|",3,3,3,3,"_",3,3,3,5,5,"_",5,1,"_",1,"|"]],[[".","_","_",".",".",".","_","_","|",".",".",".",".","_","_",".",".",".","_","_",".",".","_","|"],[".","_","_",".",".",".","_","_","|",".",".",".",".","_","_",".",".",".","_","_",".",".","_","|"],[".","_","_",".",".",".","_","_","|",".",".",".",".","_","_",".",".",".","_","_",".",".","_","|"],[0,"_","_",0,0,0,"_","_","|",0,0,0,0,"_","_",0,0,0,"_","_",0,0,"_","|"],[0,"_","_",0,0,0,"_","_","|",0,0,0,0,"_","_",0,0,0,"_","_",0,0,"_","|"],[0,"_","_",0,0,0,"_","_","|",0,0,0,0,"_","_",0,0,0,"_","_",0,0,"_","|"]],[[".",".",".",".","_","_",".",".",".",".","_",".",".","|",".",".",".",".",".",".",".",".",".",".","_",".",".","_",".","|",".","_","_","_","_","|"],[".",".",".",".","_","_",".",".",".",".","_",".",".","|",".",".",".",".",".",".",".",".",".",".","_",".",".","_",".","|",".","_","_","_","_","|"],[".",".",".",".","_","_",".",".",".",".","_",".",".","|",".",".",".",".",".",".",".",".",".",".","_",".",".","_",".","|",".","_","_","_","_","|"],[8,8,8,8,"_","_",8,8,8,8,"_",8,8,"|",".",".",".",".",".",".",".",".",".",".","_",".",".","_",".","|",".","_","_","_","_","|"],[8,8,8,8,"_","_",8,8,8,8,"_",8,8,"|",".",".",".",".",".",".",".",10,8,".","_",".",".","_",".","|",".","_","_","_","_","|"],[8,8,8,8,"_","_",8,8,8,8,"_",8,8,"|",10,10,10,10,10,10,10,".",".",10,"_",12,13,"_",13,"|",0,"_","_","_","_","|"]],[[12,"_",".","_",".",".","_","_",12,"_",".","_",".",".","_",".","_","_",15,"_",".","_",".","_","_",17,"_",".","_",".","|"],[".","_",10,"_",".",10,"_","_",".","_",10,"_",".",13,"_",12,"_","_",".","_",15,"_",".","_","_",".","_",17,"_",".","|"],[".","_",".","_",12,".","_","_",".","_",".","_",12,".","_",".","_","_",".","_",".","_",12,"_","_",".","_",".","_",14,"|"],[".","_",".","_",".",".","_","_",".","_",".","_",".",".","_",".","_","_",".","_",".","_",".","_","_",".","_",".","_",".","|"],[".","_",".","_",".",".","_","_",".","_",".","_",".",".","_",".","_","_",".","_",".","_",".","_","_",".","_",".","_",".","|"],[".","_",".","_",".",".","_","_",".","_",".","_",".",".","_",".","_","_",".","_",".","_",".","_","_",".","_",".","_",".","|"]],[[12,"_",".","_",".",".","_","_",12,"_",".","_",".",".","_",".","_","_",".","_",15,"_",".","_","_",17,"_",".","_",17,"|",".","_","_","_","_","|"],[".","_",10,"_",".",10,"_","_",".","_",10,"_",".",13,"_",12,"_","_",15,"_",".","_",".","_","_",".","_",17,"_",".","|",".","_","_","_","_","|"],[".","_",".","_",12,".","_","_",".","_",".","_",12,".","_",".","_","_",".","_",".","_",12,"_","_",".","_",".","_",".","|",".","_","_","_","_","|"],[".","_",".","_",".",".","_","_",".","_",".","_",".",".","_",".","_","_",".","_",".","_",".","_","_",".","_",".","_",".","|",".","_","_","_","_","|"],[".","_",".","_",".",".","_","_",".","_",".","_",".",".","_",".","_","_",".","_",".","_",".","_","_",".","_",".","_",".","|",".","_","_","_","_","|"],[".","_",".","_",".",".","_","_",".","_",".","_",".",".","_",".","_","_",".","_",".","_",".","_","_",".","_",".","_",".","|",0,"_","_","_","_","|"]],[[".",".",".",".",".",".",".",".",".",".",".",".",".",".",".",".",".",".",".",".",".",".",".",".",".",".",".",".",".",".",".",".","|"],[".",".",".",".",".",".",".",".",".",".",".",".",".",".",".",".",".",".",".",".",".",".",".",".",".",".",".",".",".",".",".",".","|"],[".",".",".",".",".",".",".",".",".",".",".",".",".",".",".",".",".",".",".",".",".",".",".",".",".",".",".",".",".",".",".",".","|"],[".",".",".",".",".",".",".",".",".",".",".",".",".",".",".",".",".",".",".",".",".",".",".",".",".",".",".",".",".",".",".",".","|"],[6,".",5,".",".",".",".",".",6,".",5,".",".",".",".",".",6,".",5,".",".",".",".",".",".",".",".",".",".",".",".",".","|"],[".",0,".",0,7,8,5,0,".",0,".",0,7,8,5,0,".",0,".",0,7,8,5,0,1,0,0,1,0,0,1,0,"|"]],[[".",".",".",".",".",".",".",".",".",".",".",".",".",".",".",".",".",".",".",".",".",".",".",".",".",".","_",".","_",".",".","|"],[".",".",".",".",".",".",".",".",".",".",".",".",".",".",".",".",".",".",".",".",".",".",".",".",".",".","_",".","_",".",".","|"],[".",".",".",".",".",".",".",".",".",".",".",".",".",".",".",".",".",".",".",".",".",".",".",".",".",".","_",".","_",".",".","|"],[".",".",".",".",".",".",".",".",".",".",".",".",".",".",".",".",".",".",".",".",".",".",".",".",".",".","_",".","_",".",".","|"],[6,".",5,".",".",".",".",".",6,".",5,".",".",".",".",".",6,".",5,".",".",".",".",".",".",".","_",".","_",".",".","|"],[".",0,".",0,7,8,5,0,".",0,".",0,7,8,5,0,".",0,".",0,7,8,5,0,0,0,"_",0,"_",0,0,"|"]],[[12,10,8,".",".",".",".",".",10,12,8,".",".",".",".",".","|"],[".",".",".",10,".",".",".",".",".",".",".",10,".",".",".",".","|"],[".",".",".",".",".",".",".",".",".",".",".",".",".",".",".",".","|"],[".",".",".",".",".",".",".",".",".",".",".",".",".",".",".",".","|"],[".",".",".",".",".",".",".",".",".",".",".",".",".",".",".",".","|"],[".",".",".",".",7,8,5,0,".",".",".",".",7,8,5,0,"|"]],[[".",".",".",".",".",".",".",".",".",".",".",".",".",".",".",".",".",".",".",".",".",".",".",".",".",".",".",".",".",".",".",".",".",".",".",".",".",".",".",".",".",".",".",".",".",".","|"],[".",".",".",".",".",".",".",".",".",".",".",".",".",".",".",".",".",".",".",".",".",".",".",".",".",".",".",".",".",".",".",".",".",".",".",".",".",".",".",".",".",".",".",".",".",".","|"],[".",".",".",".",".",".",".",".",".",".",".",".",".",".",".",".",".",".",".",".",".",".",".",".",".",".",".",".",".",".",".",".",".",".",".",".",".",".",".",".",".",".",".",".",".",".","|"],[13,"r",0,12,"r",0,".",".",13,"r",0,12,"r",0,".",".",".",".",5,"v",5,"v","/",13,"r",0,12,"r",0,".",".",13,"r",0,12,"r",0,".",".",".",".",".",".",".",".",".","|"],[".",".",".",".",".",".",".",".",".",".",".",".",".",".",".",".",".",".",".",".",".",".",".",".",".",".",".",".",".",".",".",".",".",".",".",".",".",".",".",".",".",".",".",".",".",".","|"],[".",".",".",".",".",".",0,0,".",".",".",".",".",".",0,0,0,0,".",".",".",".",".",".",".",".",".",".",".",0,0,".",".",".",".",".",".",0,0,1,"b",2,"r",0,0,0,"|"]],[[".",".",".",".",".",".",".",".",".",".",".",".",".",".",".",".",".",".",".",".",".",".",".",".",".",".",".",".",".",".",".",".",".",".",".",".",".",".",".",".",".",".",".",".",".",".",".","|"],[".",".",".",".",".",".",".",".",".",".",".",".",".",".",".",".",".",".",".",".",".",".",".",".",".",".",".",".",".",".",".",".",".",".",".",".",".",".",".",".",".",".",".",".",".",".",".","|"],[".",".",".",".",".",".",".",".",".",".",".",".",".",".",".",".",5,"v",5,"v",5,"v",5,"v",".",".",".",".",".",".",".",".",".",".",".",3,"v",3,"v",3,"v",3,"v",3,"v",3,"v","|"],[13,"r",0,12,"r",0,".",".",13,"r",0,12,"r",0,".",".",".",".",".",".",".",".",".",".",13,"r",0,12,"r",0,".",".",13,"r",0,".",".",".",".",".",".",".",".",".",".",".",".","|"],[".",".",".",".",".",".",".",".",".",".",".",".",".",".",".",".",".",".",".",".",".",".",".",".",".",".",".",".",".",".",".",".",".",".",".",".",".",".",".",".",".",".",".",".",".",".",".","|"],[".",".",".",".",".",".",0,0,".",".",".",".",".",".",0,0,".",".",".",".",".",".",".",".",".",".",".",".",".",".",0,0,".",".",".",".",".",".",".",".",".",".",".",".",".",".",".","|"]],[["_","_","_","_",".",".","_","_","_","_",".",".",".",".","_","_","_","_","_","_","_",".",".","_","_","_","_",".",".",".",".",".",".",".",".",".","|"],["_","_","_","_",".",".","_","_","_","_",".",".",".",".","_","_","_","_","_","_","_",".",".","_","_","_","_",".",".",".",".",".",".",".",".",".","|"],["_","_","_","_",".",".","_","_","_","_",".",".",".",".","_","_","_","_","_","_","_",".",".","_","_","_","_",".",".",".",".",".",".",".",".",".","|"],["_","_","_","_",".",".","_","_","_","_",".",".",".",".","_","_","_","_","_","_","_",".",".","_","_","_","_",".",".",".",".",".",".",".",".",".","|"],["_","_","_","_",0,0,"_","_","_","_",0,0,0,0,"_","_","_","_","_","_","_",0,0,"_","_","_","_",".",".",".",".",".",".",".",".",".","|"],["_","_","_","_",0,0,"_","_","_","_",0,0,0,0,"_","_","_","_","_","_","_",0,0,"_","_","_","_",0,0,1,"b",2,"r",0,0,0,"|"]],[["_","_","_","_",".",".","_","_","_","_",".",".","_","_","_","_","_","_","_","_","_",".",".","_","_",".",".",".",".",".",".",".",".",".",".",".","|"],["_","_","_","_",".",".","_","_","_","_",".",".","_","_","_","_","_","_","_","_","_",".",".","_","_",".",".",".",".",".",".",".",".",".",".",".","|"],["_","_","_","_",".",".","_","_","_","_",".",".","_","_","_","_","_","_","_","_","_",".",".","_","_",".",".",".",".",".",".",".",".",".",".",".","|"],["_","_","_","_",".",".","_","_","_","_",".",".","_","_","_","_","_","_","_","_","_",".",".","_","_",".",".",".",".",".",".",".",".",".",".",".","|"],["_","_","_","_",0,0,"_","_","_","_",0,0,"_","_","_","_","_","_","_","_","_",0,0,"_","_",".",".",".",".",".",".",".",".",".",".",".","|"],["_","_","_","_",0,0,"_","_","_","_",0,0,"_","_","_","_","_","_","_","_","_",0,0,"_","_",1,"b",2,"r",0,0,0,0,0,0,0,"|"]],[[".",".",".",".","_","_",".",".",".",".","_","_","_","_","_","_","_",".",".",".",".","_","_",".",".",".",".",".",".",".",".",".",".",".",".",".","|"],[".",".",".",".","_","_",".",".",".",".","_","_","_","_","_","_","_",".",".",".",".","_","_",".",".",".",".",".",".",".",".",".",".",".",".",".","|"],[".",".",".",".","_","_",".",".",".",".","_","_","_","_","_","_","_",".",".",".",".","_","_",".",".",".",".",".",".",".",".",".",".",".",".",".","|"],[".",".",".",".","_","_",".",".",".",".","_","_","_","_","_","_","_",".",".",".",".","_","_",".",".",".",".",".",".",".",".",".",".",".",".",".","|"],[0,0,0,0,"_","_",0,0,0,0,"_","_","_","_","_","_","_",0,0,0,0,"_","_",0,0,0,0,".",".",".",".",".",".",".",".",".","|"],[0,0,0,0,"_","_",0,0,0,0,"_","_","_","_","_","_","_",0,0,0,0,"_","_",0,0,0,0,0,0,1,"b",2,"r",0,0,0,"|"]],[[".",".",".",".","_","_",".",".",".",".","_","_","_","_","_","_","_",".",".",".",".","_","_",".",".",".",".",".",".",".",".",".",".",".",".",".","|"],[".",".",".",".","_","_",".",".",".",".","_","_","_","_","_","_","_",".",".",".",".","_","_",".",".",".",".",".",".",".",".",".",".",".",".",".","|"],[".",".",".",".","_","_",".",".",".",".","_","_","_","_","_","_","_",".",".",".",".","_","_",".",".",".",".",".",".",".",".",".",".",".",".",".","|"],[".",".",".",".","_","_",".",".",".",".","_","_","_","_","_","_","_",".",".",".",".","_","_",".",".",".",".",".",".",".",".",".",".",".",".",".","|"],[0,0,0,0,"_","_",0,0,0,0,"_","_","_","_","_","_","_",0,0,0,0,"_","_",0,0,".",".",".",".",".",".",".",".",".",".",".","|"],[0,0,0,0,"_","_",0,0,0,0,"_","_","_","_","_","_","_",0,0,0,0,"_","_",0,0,1,"b",2,"r",0,0,0,0,0,0,0,"|"]],[[".",".","_",".","_","_",".",".",".",".","_",".",".",".",".",".",".","_",".","_","_",".",".",".",".",".",".",".","_",".","_","|"],[".",".","_",".","_","_",".",".",".",".","_",".",".",".",".",".",".","_",".","_","_",".",".",".",".",".",".",".","_",".","_","|"],[".",".","_",".","_","_",".",".",".",".","_",".",".",".",".",".",".","_",".","_","_",".",".",".",".",".",".",".","_",".","_","|"],[".",".","_",".","_","_",".",".",".",".","_",".",".",".",".",".",".","_",".","_","_",".",".",".",".",".",".",".","_",".","_","|"],[".",".","_",".","_","_",".",".",5,".","_",".",3,"h",5,".",".","_",".","_","_",".",".",3,"h",6,".",".","_",".","_","|"],[0,0,"_",0,"_","_",0,0,".",0,"_",0,".",".",".",0,0,"_",0,"_","_",0,0,".",".",".",0,0,"_",1,"_","|"]],[["_",".",".",".",".",".","_",".",".","_",".","_",".",".",".",".",".",".",".","_",".",".",".",".","_",".","_",".","|"],["_",".",".",".",".",".","_",".",".","_",".","_",".",".",".",".",".",".",".","_",".",".",".",".","_",".","_",".","|"],["_",".",".",".",".",".","_",".",".","_",".","_",".",".",".",".",".",".",".","_",".",".",".",".","_",".","_",".","|"],["_",".",".",".",".",".","_",".",".","_",".","_",".",".",".",".",".",".",".","_",".",".",".",".","_",".","_",".","|"],["_",".",".",".",".",".","_",".",".","_",".","_",10,8,".",".",".",".",".","_",".",".",".",".","_",".","_",".","|"],["_","/",8,8,8,8,"_",8,8,"_",8,"_",".",".",10,12,12,12,12,"_",0,1,0,0,"_",0,"_",1,"|"]],[[".","_","_","_","_","_","_","_","_","|",".","_","_","_","_","_","_","_","_","|",".","_","_","_","_","_","_","_","_","|"],[".","_","_","_","_","_","_","_","_","|",".","_","_","_","_","_","_","_","_","|",".","_","_","_","_","_","_","_","_","|"],[".","_","_","_","_","_","_","_","_","|",".","_","_","_","_","_","_","_","_","|",".","_","_","_","_","_","_","_","_","|"],[".","_","_","_","_","_","_","_","_","|",".","_","_","_","_","_","_","_","_","|",".","_","_","_","_","_","_","_","_","|"],[".","_","_","_","_","_","_","_","_","|",".","_","_","_","_","_","_","_","_","|",".","_","_","_","_","_","_","_","_","|"],[0,"_","_","_","_","_","_","_","_","|",0,"_","_","_","_","_","_","_","_","|",0,"_","_","_","_","_","_","_","_","|"]],[[".",".","_",".","_","_",".",".",".",".","_",".",".",".",".",".",".","_",".","_","_",".",".",".",".",".",".",".","_",".","_","|"],[".",".","_",".","_","_",".",".",".",".","_",".",".",".",".",".",".","_",".","_","_",".",".",".",".",".",".",".","_",".","_","|"],[".",".","_",".","_","_",".",".",".",".","_",".",".",".",".",".",".","_",".","_","_",".",".",".",".",".",".",".","_",".","_","|"],[".",".","_",".","_","_",".",".",".",".","_",".",".",".",".",".",".","_",".","_","_",".",".",".",".",".",".",".","_",".","_","|"],[".",".","_",".","_","_",".",".",5,".","_",".",3,"h",5,".",".","_",".","_","_",".",".",3,"h",6,".",".","_",".","_","|"],[0,0,"_",0,"_","_",0,0,".",0,"_",0,".",".",".",0,0,"_",0,"_","_",0,0,".",".",".",0,0,"_",1,"_","|"]],[[".",".",".",".","_","_",".",".","_",".","_",".",".",".",".",".",".",".",".",".",".",".",".",".",".",".",".",".",".",".","|",".","_","_","_","_","_","_","|"],[".",".",".",".","_","_",".",".","_",".","_",".",".",".",".",".",".",".",".",".",".",".",".",".",".",".",".",".",".",".","|",".","_","_","_","_","_","_","|"],[".",".",".",".","_","_",".",".","_",".","_",".",".",".",".",".",".",".",".",".",".",".",".",".",".",".",".",".",".",".","|",".","_","_","_","_","_","_","|"],[".",".",".",".","_","_",".",".","_",".","_",".",".",".",".",".",".",".",".",".",".",".",".",".",".",".",".",".",".",".","|",".","_","_","_","_","_","_","|"],[".",".",".",".","_","_",".",".","_",".","_",6,5,".",5,".",".",3,".",".",1,".",0,".",".",".",".",".",".",".","|",".","_","_","_","_","_","_","|"],[0,0,0,0,"_","_",0,0,"_",0,"_",".",".",0,".",0,0,".",0,0,".",0,".",0,5,0,3,0,1,0,"|",0,"_","_","_","_","_","_","|"]]],"numberofstrings":6,"notes":["CsDb","GsAb","E","FsGb","CsDb","FsGb","B"],"capo":0,"stringnotes":["Db6","Ab5","E4","Gb3","Db2","Gb1"],"comments":["Stave 1:","Stave 2:","Stave 3:","Stave 4:","Stave 5:","Stave 6:","Stave 7:","Stave 8:","Stave 9:","Stave 10:","Stave 11:","Stave 12:","Stave 13:","Stave 14:","Stave 15:","Stave 16:","Stave 17:","Stave 18:","Stave 19:","Stave 20:"],"timing":[["W","W","W","W","W","W","W","W",null,"W","W","W","W","W","W","W","W","W","W","W","W","W","W"],["W","W","W","W","W","W","W","W","W",null,"W","W","W","W","W","W","W","W","W","W","W","W","W","W","W"],["W","W","W","W","W","W","W","W",null,"W","W","W","W","W","W","W","W","W","W","W","W","W","W"],["W","W","W","W","W","W","W","W","W","W","W","W","W","W","W","W","W","W","W","W","W","W","W","W","W","W","W","W","W","W","W","W","W","W","W"],["W","W","W","W","W","W","W","W","W","W","W","W","W","W","W","W","W","W","W","W","W","W","W","W","W","W","W","W","W","W"],["W","W","W","W","W","W","W","W","W","W","W","W","W","W","W","W","W","W","W","W","W","W","W","W","W","W","W","W","W","W",null,"W","W","W","W","W"],["W","W","W","W","W","W","W","W","W","W","W","W","W","W","W","W","W","W","W","W","W","W","W","W","W","W","W","W","W","W","W","W","W"],["W","W","W","W","W","W","W","W","W","W","W","W","W","W","W","W","W","W","W","W","W","W","W","W","W","W","W","W","W","W","W"],["W","W","W","W","W","W","W","W","W","W","W","W","W","W","W","W"],["W","W","W","W",null,"W","W","W","W",null,"W","W",null,"W","W","W","W","W","W","W","W","W","W","W","W","W","W","W","W","W","W","W",null,"W","W",null,"W","W","W","W",null,"W","W","W","W","W"],["W",null,"W","W",null,"W","W","W","W",null,"W","W",null,"W","W","W","W",null,"W",null,"W",null,"W",null,"W",null,"W","W",null,"W","W","W","W","W","W","W","W","W","W","W","W","W","W","W","W","W"],["W","W","W","W","W","W","W","W","W","W","W","W","W","W","W","W","W","W","W","W","W","W","W","W","W","W","W","W","W","W",null,"W",null,"W","W","W"],["W","W","W","W","W","W","W","W","W","W","W","W","W","W","W","W","W","W","W","W","W","W","W","W","W","W","W","W","W","W","W","W","W","W","W","W"],["W","W","W","W","W","W","W","W","W","W","W","W","W","W","W","W","W","W","W","W","W","W","W","W","W","W","W","W","W","W",null,"W",null,"W","W","W"],["W","W","W","W","W","W","W","W","W","W","W","W","W","W","W","W","W","W","W","W","W","W","W","W","W","W",null,"W",null,"W","W","W","W","W","W","W"],["W","W","W","W","W","W","W","W","W","W","W","W","W","W","W","W","W","W","W","W","W","W","W","W",null,"W","W","W","W","W","W","W","W","W","W","W","W","W","W","W","W","W","W","W","W","W","W","W","W","W","W"],["W",null,"W","W","W","W","W","W","W","W","W","W","W","W","W","W","W","W","W","W","W","W","W","W","W","W","W","W"],["W","W","W","W","W","W","W","W","W",null,"W","W","W","W","W","W","W","W","W",null,"W","W","W","W","W","W","W","W","W"],["W","W","W","W","W","W","W","W","W","W","W","W","W",null,"W","W","W","W","W","W","W","W","W","W",null,"W","W","W","W","W","W"],["W","W","W","W","W","W","W","W","W","W","W","W","W","W","W","W","W","W","W","W","W","W","W","W","W","W","W","W","W","W",null,"W","W","W","W","W","W","W"]],"timingvisible":false,"tabcounter":39,"stave":19,"totalstaves":20,"instrument":"6guitar","selectedtuning":"6_standard","version":"13"}

Member for

5 months 2 weeks
About Me
guitar for wtw
Submitted by wtwjoe on Mon, 2021-06-07 17:01