OBEY // DECAY Bass Guitar

01234567891011121314151617181920212223
E
B
G
D
A
E
B
0 1 2 3 4 5 6 7 8 9 10 11 12 13 14 15 16 17 18 19 20 21 22 23
(/) Slide Up  (\) Slide Down  (h) Hammer On  (p) Pull Off  (b) Bend (r) Release (v) Vibrato

Stave 1:

Db|-------------------------------|---------------------------------|-
Ab|-------------------------------|---------------------------------|-
Eb|-------------------------------|---------------------------------|-
Ab|-2-------------2-------2-------|-2---2-------------2---2---------|-

Stave 2:

Db|-------------------------------|---------------------------------|-
Ab|-------------------------------|---------------------------------|-
Eb|-------------------------------|---------------------------------|-
Ab|-2-------------2-------2-------|-2-------2-------2-------2-------|-

Stave 3:

Db|-|:-------------------------------------------------:|-
Ab|-|:-------------------------------------------------:|-
Eb|-|:-------------------------------------------------:|-
Ab|-|:-3-2-1-2-1-0-3-2-1-2-1-0-3-2-1-2-1-0-2-1-0-2-1-0-:|-

Stave 4:

Db|-|:-------------------------------------------------|-------------------------------------------------:|-
Ab|-|:-------------------------------------------------|-------------------------------------------------:|-
Eb|-|:-------------------------------------------------|-------------------------------------------------:|-
Ab|-|:-3-2-1-2-1-0-------3-2-1-2-1-0-------2-1-0-2-1-0-|-3-2-1-2-1-0-------2-1-0-2-1-0-3-2-1-2-1-0-2-1-0-:|-

Stave 5:

Db|-------------------------------------------------------------------------------------------------------|-
Ab|-------------------------------------------------------------------------------------------------------|-
Eb|-------------------------------------------------------------------------------------------------------|-
Ab|-0---0---0---0---0---0-----------------0---0---0---0---0---0-------------------------------------------|-

Stave 6:

Db|---------------------------------|-----------------------------------|-----------------------|-
Ab|---------------------------------|-----------------------------------|-----------------------|-
Eb|---------------------------------|-----------------------------------|-----------------------|-
Ab|-2-2-2---2-2-2-------------------|-2-2-2---2-2-2---2-2-2---------2-2-|-2---2---2---2---2---2-|-

Stave 7:

Db|---------------------------------|-----------------------------------|-----------------------|-
Ab|---------------------------------|-----------------------------------|-----------------------|-
Eb|---------------------------------|-----------------------------------|-----------------------|-
Ab|-2-2-2---2-2-2-------2---2---2---|-2-2-2---2-2-2---2-2-2---------2-2-|-2---2---2---2---2---2-|-

Stave 8:

Db|-|:---------------------------------|---------------------------------|---------------------:|-
Ab|-|:---------------------------------|---------------------------------|---------------------:|-
Eb|-|:---------------------------------|---------------------------------|---------------------:|-
Ab|-|:-0---0---0---0---0---0---1-------|-0---0---0---0---0---0---1-------|-0---0---0---0-------:|-

Stave 9:

Db|-|:---------------------------------------------------------------------------------------|-------|-
Ab|-|:---------------------------------------------------------------------------------------|-------|-
Eb|-|:---------------------------------------------------------------------------------------|-------|-
Ab|-|:-0---0---0---0---0---0---1---1---1---0---0---0---0---0---0---1---1---1---0---0---0---0-|-0---0-|-

							http://www.guitartabcreator.com
Chords

genre
Instruments
{"strings":[[[".","_","_","_","_","_","_",".","_","_","_",".","_","_","_","|",".","_",".","_","_","_","_","_","_",".","_",".","_","_","_","_","|"],[".","_","_","_","_","_","_",".","_","_","_",".","_","_","_","|",".","_",".","_","_","_","_","_","_",".","_",".","_","_","_","_","|"],[".","_","_","_","_","_","_",".","_","_","_",".","_","_","_","|",".","_",".","_","_","_","_","_","_",".","_",".","_","_","_","_","|"],[2,"_","_","_","_","_","_",2,"_","_","_",2,"_","_","_","|",2,"_",2,"_","_","_","_","_","_",2,"_",2,"_","_","_","_","|"]],[[".","_","_","_","_","_","_",".","_","_","_",".","_","_","_","|",".","_","_","_",".","_","_","_",".","_","_","_",".","_","_","_","|"],[".","_","_","_","_","_","_",".","_","_","_",".","_","_","_","|",".","_","_","_",".","_","_","_",".","_","_","_",".","_","_","_","|"],[".","_","_","_","_","_","_",".","_","_","_",".","_","_","_","|",".","_","_","_",".","_","_","_",".","_","_","_",".","_","_","_","|"],[2,"_","_","_","_","_","_",2,"_","_","_",2,"_","_","_","|",2,"_","_","_",2,"_","_","_",2,"_","_","_",2,"_","_","_","|"]],[["|:",".",".",".",".",".",".",".",".",".",".",".",".",".",".",".",".",".",".",".",".",".",".",".",".",":|"],["|:",".",".",".",".",".",".",".",".",".",".",".",".",".",".",".",".",".",".",".",".",".",".",".",".",":|"],["|:",".",".",".",".",".",".",".",".",".",".",".",".",".",".",".",".",".",".",".",".",".",".",".",".",":|"],["|:",3,2,1,2,1,0,3,2,1,2,1,0,3,2,1,2,1,0,2,1,0,2,1,0,":|"]],[["|:",".",".",".",".",".",".","_","_","_",".",".",".",".",".",".","_","_","_",".",".",".",".",".",".","|",".",".",".",".",".",".","_","_","_",".",".",".",".",".",".",".",".",".",".",".",".",".",".",".",":|"],["|:",".",".",".",".",".",".","_","_","_",".",".",".",".",".",".","_","_","_",".",".",".",".",".",".","|",".",".",".",".",".",".","_","_","_",".",".",".",".",".",".",".",".",".",".",".",".",".",".",".",":|"],["|:",".",".",".",".",".",".","_","_","_",".",".",".",".",".",".","_","_","_",".",".",".",".",".",".","|",".",".",".",".",".",".","_","_","_",".",".",".",".",".",".",".",".",".",".",".",".",".",".",".",":|"],["|:",3,2,1,2,1,0,"_","_","_",3,2,1,2,1,0,"_","_","_",2,1,0,2,1,0,"|",3,2,1,2,1,0,"_","_","_",2,1,0,2,1,0,3,2,1,2,1,0,2,1,0,":|"]],[[".","_",".","_",".","_",".","_",".","_",".","_","_","_","_","_","_","_","_",".","_",".","_",".","_",".","_",".","_",".","_","_","_","_","_","_","_","_","_","_","_","_","_","_","_","_","_","_","_","_","_","|"],[".","_",".","_",".","_",".","_",".","_",".","_","_","_","_","_","_","_","_",".","_",".","_",".","_",".","_",".","_",".","_","_","_","_","_","_","_","_","_","_","_","_","_","_","_","_","_","_","_","_","_","|"],[".","_",".","_",".","_",".","_",".","_",".","_","_","_","_","_","_","_","_",".","_",".","_",".","_",".","_",".","_",".","_","_","_","_","_","_","_","_","_","_","_","_","_","_","_","_","_","_","_","_","_","|"],[0,"_",0,"_",0,"_",0,"_",0,"_",0,"_","_","_","_","_","_","_","_",0,"_",0,"_",0,"_",0,"_",0,"_",0,"_","_","_","_","_","_","_","_","_","_","_","_","_","_","_","_","_","_","_","_","_","|"]],[[".",".",".","_",".",".",".","_","_","_","_","_","_","_","_","_","|",".",".",".","_",".",".",".","_",".",".",".","_","_","_","_",".",".","|",".","_",".","_",".","_",".","_",".","_",".","|"],[".",".",".","_",".",".",".","_","_","_","_","_","_","_","_","_","|",".",".",".","_",".",".",".","_",".",".",".","_","_","_","_",".",".","|",".","_",".","_",".","_",".","_",".","_",".","|"],[".",".",".","_",".",".",".","_","_","_","_","_","_","_","_","_","|",".",".",".","_",".",".",".","_",".",".",".","_","_","_","_",".",".","|",".","_",".","_",".","_",".","_",".","_",".","|"],[2,2,2,"_",2,2,2,"_","_","_","_","_","_","_","_","_","|",2,2,2,"_",2,2,2,"_",2,2,2,"_","_","_","_",2,2,"|",2,"_",2,"_",2,"_",2,"_",2,"_",2,"|"]],[[".",".",".","_",".",".",".","_","_","_",".","_",".","_",".","_","|",".",".",".","_",".",".",".","_",".",".",".","_","_","_","_",".",".","|",".","_",".","_",".","_",".","_",".","_",".","|"],[".",".",".","_",".",".",".","_","_","_",".","_",".","_",".","_","|",".",".",".","_",".",".",".","_",".",".",".","_","_","_","_",".",".","|",".","_",".","_",".","_",".","_",".","_",".","|"],[".",".",".","_",".",".",".","_","_","_",".","_",".","_",".","_","|",".",".",".","_",".",".",".","_",".",".",".","_","_","_","_",".",".","|",".","_",".","_",".","_",".","_",".","_",".","|"],[2,2,2,"_",2,2,2,"_","_","_",2,"_",2,"_",2,"_","|",2,2,2,"_",2,2,2,"_",2,2,2,"_","_","_","_",2,2,"|",2,"_",2,"_",2,"_",2,"_",2,"_",2,"|"]],[["|:",".","_",".","_",".","_",".","_",".","_",".","_",".","_","_","_","|",".","_",".","_",".","_",".","_",".","_",".","_",".","_","_","_","|",".","_",".","_",".","_",".","_","_","_",":|"],["|:",".","_",".","_",".","_",".","_",".","_",".","_",".","_","_","_","|",".","_",".","_",".","_",".","_",".","_",".","_",".","_","_","_","|",".","_",".","_",".","_",".","_","_","_",":|"],["|:",".","_",".","_",".","_",".","_",".","_",".","_",".","_","_","_","|",".","_",".","_",".","_",".","_",".","_",".","_",".","_","_","_","|",".","_",".","_",".","_",".","_","_","_",":|"],["|:",0,"_",0,"_",0,"_",0,"_",0,"_",0,"_",1,"_","_","_","|",0,"_",0,"_",0,"_",0,"_",0,"_",0,"_",1,"_","_","_","|",0,"_",0,"_",0,"_",0,"_","_","_",":|"]],[["|:",".","_",".","_",".","_",".","_",".","_",".","_",".","_",".","_",".","_",".","_",".","_",".","_",".","_",".","_",".","_",".","_",".","_",".","_",".","_",".","_",".","_",".","|",".","_",".","|"],["|:",".","_",".","_",".","_",".","_",".","_",".","_",".","_",".","_",".","_",".","_",".","_",".","_",".","_",".","_",".","_",".","_",".","_",".","_",".","_",".","_",".","_",".","|",".","_",".","|"],["|:",".","_",".","_",".","_",".","_",".","_",".","_",".","_",".","_",".","_",".","_",".","_",".","_",".","_",".","_",".","_",".","_",".","_",".","_",".","_",".","_",".","_",".","|",".","_",".","|"],["|:",0,"_",0,"_",0,"_",0,"_",0,"_",0,"_",1,"_",1,"_",1,"_",0,"_",0,"_",0,"_",0,"_",0,"_",0,"_",1,"_",1,"_",1,"_",0,"_",0,"_",0,"_",0,"|",0,"_",0,"|"]]],"numberofstrings":4,"notes":["CsDb","GsAb","DsEb","GsAb"],"capo":0,"stringnotes":["G2","D2","A1","E1"],"comments":["Stave 1:","Stave 2:","Stave 3:","Stave 4:","Stave 5:","Stave 6:","Stave 7:","Stave 8:","Stave 9:","Stave 10:"],"timing":[[null,null,null,null,null,null,null,null,null,null,null,null,null,null,null,null,null,null,null,null,null,null,null,null,null,null,null,null,null,null,null,null],[null,null,null,null,null,null,null,null,null,null,null,null,null,null,null,null,null,null,null,null,null,null,null,null,null,null,null,null,null,null,null,null],[null,null,null,null,null,null,null,null,null,null,null,null,null,null,null,null,null,null,null,null,null,null,null,null,null],[null,null,null,null,null,null,null,null,null,null,null,null,null,null,null,null,null,null,null,null,null,null,null,null,null,null,null,null,null,null,null,null,null,null,null,null,null,null,null,null,null,null,null,null,null,null,null,null,null,null],[null,null,null,null,null,null,null,null,null,null,null,null,null,null,null,null,null,null,null,null,null,null,null,null,null,null,null,null,null,null,null,null,null,null,null,null,null,null,null,null,null,null,null,null,null,null,null,null,null,null,null],[null,null,null,null,null,null,null,null,null,null,null,null,null,null,null,null,null,null,null,null,null,null,null,null,null,null,null,null,null,null,null,null,null,null,null,null,null,null,null,null,null,null,null,null,null,null],[null,null,null,null,null,null,null,null,null,null,null,null,null,null,null,null,null,null,null,null,null,null,null,null,null,null,null,null,null,null,null,null,null,null,null,null,null,null,null,null,null,null,null,null,null,null],[null,null,null,null,null,null,null,null,null,null,null,null,null,null,null,null,null,null,null,null,null,null,null,null,null,null,null,null,null,null,null,null,null,null,null,null,null,null,null,null,null,null,null,null,null],[null,null,null,null,null,null,null,null,null,null,null,null,null,null,null,null,null,null,null,null,null,null,null,null,null,null,null,null,null,null,null,null,null,null,null,null,null,null,null,null,null,null,null,null,null,null,null,null],[]],"timingvisible":false,"tabcounter":49,"stave":8,"totalstaves":9,"instrument":"4bass","selectedtuning":"4bass","version":"13"}

Member for

4 months 2 weeks
About Me
guitar for wtw
Submitted by wtwjoe on Wed, 2021-08-04 13:38