OBEY // DECAY

01234567891011121314151617181920212223
E
B
G
D
A
E
B
0 1 2 3 4 5 6 7 8 9 10 11 12 13 14 15 16 17 18 19 20 21 22 23
(/) Slide Up  (\) Slide Down  (h) Hammer On  (p) Pull Off  (b) Bend (r) Release (v) Vibrato

Stave 1:

Eb|-------------------------|-------------------------|-------------------------|-------------------------|-
Bb|-------------------------|-------------------------|-------------------------|-------------------------|-
Gb|-------------------------|-------------------------|-------------------------|-------------------------|-
Db|-------------------------|-------------------------|-------------------------|-------------------------|-
Ab|-------------------------|-------------------------|-------------------------|-------------------------|-
Eb|-------------------------|-------------------------|-------------------------|-------------------------|-
Ab|-3-2-1-2-1-0-3-2-1-2-1-0-|-3-2-1-2-1-0-2-1-0-2-1-0-|-3-2-1-2-1-0-3-2-1-2-1-0-|-3-2-1-2-1-0-2-1-0-2-1-0-|-

Stave 2:

Eb|-------------------------------------------|----------------------------------------------------|-
Bb|-------------------------------------------|----------------------------------------------------|-
Gb|-------------------------------------------|----------------------------------------------------|-
Db|-------------------------------------------|----------------------------------------------------|-
Ab|-------------------------------------------|----------------------------------------------------|-
Eb|-------------------------------------------|----------------------------------------------------|-
Ab|-3-2-1-2-1-0-2v-3-2-1-2-1-0-2v-2-1-0-2-1-0-|-3-2-1-2-1-0-2v-2v-2v-2-1-0-2-1-0-3-2-1-2-1-0-2-1-0-|-

Stave 3:

Eb|-----------------------------------------|-
Bb|-----------------------------------------|-
Gb|-----------------------------------------|-
Db|-----------------------------------------|-
Ab|-----------------------------------------|-
Eb|-----------------------------------------|-
Ab|-0-0-0-0-0-0---0-0-0-0-0-0---0-0-0-0-0-0-|-

Stave 4:

Eb|-------------------------------|---------------------------------------------------------|-
Bb|-------------------------------|---------------------------------------------------------|-
Gb|-------------------------------|---------------------------------------------------------|-
Db|-------------------------------|---------------------------------------------------------|-
Ab|-------------------------------|---------------------------------------------------------|-
Eb|-------------------------------|---------------------------------------------------------|-
Ab|-2-2-2---2-2-2-------2h3-2h3---|-2-2-2---2-2-2---2-2-2-------x-x-2---2---2---2---2---2---|-

Stave 5:

Eb|---------------------------------|---------------------------------------------------------|-
Bb|---------------------------------|---------------------------------------------------------|-
Gb|---------------------------------|---------------------------------------------------------|-
Db|---------------------------------|---------------------------------------------------------|-
Ab|---------------------------------|---------------------------------------------------------|-
Eb|---------------------------------|---------------------------------------------------------|-
Ab|-2-2-2---2-2-2-------2---2---2---|-2-2-2---2-2-2---2-2-2-------x-x-2---2---2---2---2---2---|-

Stave 6:

Eb|---------------------------------------------|---------------------------------------------|-
Bb|----13----13----13----13-13---13---13---13---|----13----13----13----13-13------------------|-
Gb|-16----16----16----16----16---16---16---16---|-16----16----16----16----16---16---16---16---|-
Db|---------------------------------------------|---------------------------------------------|-
Ab|---------------------------------------------|---------------------------------------------|-
Eb|---------------------------------------------|---------------------------------------------|-
Ab|---------------------------------------------|---------------------------------------------|-

Stave 7:

Eb|---------------------------------------------|---------------------------------------------|-
Bb|---------------------------------------------|---------------------------------------------|-
Gb|---------------------------------------------|---------------------------------------------|-
Db|---------------------------------------------|---------------------------------------------|-
Ab|---------------------------------------------|---------------------------------------------|-
Eb|---------------------------------------------|---------------------------------------------|-
Ab|-0-0-0-0-0-0-1b2---0-0-0-0-0-0-1b2---0-0-0-0-|-0-0-0-0-0-0-1b2---0-0-0-0-0-0-1b2---0-0-0-0-|-

Stave 8:

Eb|-------------------------------------------------|-------------------------------------|-
Bb|-------------------------------------------------|-------------------------------------|-
Gb|-------------------------------------------------|-------------------------------------|-
Db|-------------------------------------------------|-------------------------------------|-
Ab|-------------------------------------------------|-------------------------------------|-
Eb|-------------------------------------------------|-------------------------------------|-
Ab|-0-0-0-0-0-0-1b2b2-0-0-0-0-0-0-1b2b2-0-0-0-0-0-0-|-0-0-0-0-0-0-1b2b2-0-0-0-0-0-0-1b2b2-|-

Stave 9:

Eb|---------|-
Bb|---------|-
Gb|---------|-
Db|---------|-
Ab|---------|-
Eb|---------|-
Ab|-0-0-0-0-|-

							http://www.guitartabcreator.com
Chords

genre
Instruments
{"strings":[[[".",".",".",".",".",".",".",".",".",".",".",".","|",".",".",".",".",".",".",".",".",".",".",".",".","|",".",".",".",".",".",".",".",".",".",".",".",".","|",".",".",".",".",".",".",".",".",".",".",".",".","|"],[".",".",".",".",".",".",".",".",".",".",".",".","|",".",".",".",".",".",".",".",".",".",".",".",".","|",".",".",".",".",".",".",".",".",".",".",".",".","|",".",".",".",".",".",".",".",".",".",".",".",".","|"],[".",".",".",".",".",".",".",".",".",".",".",".","|",".",".",".",".",".",".",".",".",".",".",".",".","|",".",".",".",".",".",".",".",".",".",".",".",".","|",".",".",".",".",".",".",".",".",".",".",".",".","|"],[".",".",".",".",".",".",".",".",".",".",".",".","|",".",".",".",".",".",".",".",".",".",".",".",".","|",".",".",".",".",".",".",".",".",".",".",".",".","|",".",".",".",".",".",".",".",".",".",".",".",".","|"],[".",".",".",".",".",".",".",".",".",".",".",".","|",".",".",".",".",".",".",".",".",".",".",".",".","|",".",".",".",".",".",".",".",".",".",".",".",".","|",".",".",".",".",".",".",".",".",".",".",".",".","|"],[".",".",".",".",".",".",".",".",".",".",".",".","|",".",".",".",".",".",".",".",".",".",".",".",".","|",".",".",".",".",".",".",".",".",".",".",".",".","|",".",".",".",".",".",".",".",".",".",".",".",".","|"],[3,2,1,2,1,0,3,2,1,2,1,0,"|",3,2,1,2,1,0,2,1,0,2,1,0,"|",3,2,1,2,1,0,3,2,1,2,1,0,"|",3,2,1,2,1,0,2,1,0,2,1,0,"|"]],[[".",".",".",".",".",".",".",".",".",".",".",".",".",".",".",".",".",".",".",".",".",".","|",".",".",".",".",".",".",".",".",".",".",".",".",".",".",".",".",".",".",".",".",".",".",".",".",".",".",".","|"],[".",".",".",".",".",".",".",".",".",".",".",".",".",".",".",".",".",".",".",".",".",".","|",".",".",".",".",".",".",".",".",".",".",".",".",".",".",".",".",".",".",".",".",".",".",".",".",".",".",".","|"],[".",".",".",".",".",".",".",".",".",".",".",".",".",".",".",".",".",".",".",".",".",".","|",".",".",".",".",".",".",".",".",".",".",".",".",".",".",".",".",".",".",".",".",".",".",".",".",".",".",".","|"],[".",".",".",".",".",".",".",".",".",".",".",".",".",".",".",".",".",".",".",".",".",".","|",".",".",".",".",".",".",".",".",".",".",".",".",".",".",".",".",".",".",".",".",".",".",".",".",".",".",".","|"],[".",".",".",".",".",".",".",".",".",".",".",".",".",".",".",".",".",".",".",".",".",".","|",".",".",".",".",".",".",".",".",".",".",".",".",".",".",".",".",".",".",".",".",".",".",".",".",".",".",".","|"],[".",".",".",".",".",".",".",".",".",".",".",".",".",".",".",".",".",".",".",".",".",".","|",".",".",".",".",".",".",".",".",".",".",".",".",".",".",".",".",".",".",".",".",".",".",".",".",".",".",".","|"],[3,2,1,2,1,0,2,"v",3,2,1,2,1,0,2,"v",2,1,0,2,1,0,"|",3,2,1,2,1,0,2,"v",2,"v",2,"v",2,1,0,2,1,0,3,2,1,2,1,0,2,1,0,"|"]],[[".",".",".",".",".",".","_",".",".",".",".",".",".","_",".",".",".",".",".",".","|"],[".",".",".",".",".",".","_",".",".",".",".",".",".","_",".",".",".",".",".",".","|"],[".",".",".",".",".",".","_",".",".",".",".",".",".","_",".",".",".",".",".",".","|"],[".",".",".",".",".",".","_",".",".",".",".",".",".","_",".",".",".",".",".",".","|"],[".",".",".",".",".",".","_",".",".",".",".",".",".","_",".",".",".",".",".",".","|"],[".",".",".",".",".",".","_",".",".",".",".",".",".","_",".",".",".",".",".",".","|"],[0,0,0,0,0,0,"_",0,0,0,0,0,0,"_",0,0,0,0,0,0,"|"]],[[".",".",".","_",".",".",".","_","_","_",".",".",".",".",".",".","_","|",".",".",".","_",".",".",".","_",".",".",".","_","_","_",".",".",".","_",".","_",".","_",".","_",".","_",".","_","|"],[".",".",".","_",".",".",".","_","_","_",".",".",".",".",".",".","_","|",".",".",".","_",".",".",".","_",".",".",".","_","_","_",".",".",".","_",".","_",".","_",".","_",".","_",".","_","|"],[".",".",".","_",".",".",".","_","_","_",".",".",".",".",".",".","_","|",".",".",".","_",".",".",".","_",".",".",".","_","_","_",".",".",".","_",".","_",".","_",".","_",".","_",".","_","|"],[".",".",".","_",".",".",".","_","_","_",".",".",".",".",".",".","_","|",".",".",".","_",".",".",".","_",".",".",".","_","_","_",".",".",".","_",".","_",".","_",".","_",".","_",".","_","|"],[".",".",".","_",".",".",".","_","_","_",".",".",".",".",".",".","_","|",".",".",".","_",".",".",".","_",".",".",".","_","_","_",".",".",".","_",".","_",".","_",".","_",".","_",".","_","|"],[".",".",".","_",".",".",".","_","_","_",".",".",".",".",".",".","_","|",".",".",".","_",".",".",".","_",".",".",".","_","_","_",".",".",".","_",".","_",".","_",".","_",".","_",".","_","|"],[2,2,2,"_",2,2,2,"_","_","_",2,"h",3,2,"h",3,"_","|",2,2,2,"_",2,2,2,"_",2,2,2,"_","_","_","x3","x3",2,"_",2,"_",2,"_",2,"_",2,"_",2,"_","|"]],[[".",".",".","_",".",".",".","_","_","_",".","_",".","_",".","_","|",".",".",".","_",".",".",".","_",".",".",".","_","_","_",".",".",".","_",".","_",".","_",".","_",".","_",".","_","|"],[".",".",".","_",".",".",".","_","_","_",".","_",".","_",".","_","|",".",".",".","_",".",".",".","_",".",".",".","_","_","_",".",".",".","_",".","_",".","_",".","_",".","_",".","_","|"],[".",".",".","_",".",".",".","_","_","_",".","_",".","_",".","_","|",".",".",".","_",".",".",".","_",".",".",".","_","_","_",".",".",".","_",".","_",".","_",".","_",".","_",".","_","|"],[".",".",".","_",".",".",".","_","_","_",".","_",".","_",".","_","|",".",".",".","_",".",".",".","_",".",".",".","_","_","_",".",".",".","_",".","_",".","_",".","_",".","_",".","_","|"],[".",".",".","_",".",".",".","_","_","_",".","_",".","_",".","_","|",".",".",".","_",".",".",".","_",".",".",".","_","_","_",".",".",".","_",".","_",".","_",".","_",".","_",".","_","|"],[".",".",".","_",".",".",".","_","_","_",".","_",".","_",".","_","|",".",".",".","_",".",".",".","_",".",".",".","_","_","_",".",".",".","_",".","_",".","_",".","_",".","_",".","_","|"],[2,2,2,"_",2,2,2,"_","_","_",2,"_",2,"_",2,"_","|",2,2,2,"_",2,2,2,"_",2,2,2,"_","_","_","x2","x2",2,"_",2,"_",2,"_",2,"_",2,"_",2,"_","|"]],[[".",".",".",".",".",".",".",".",".","_",".","_",".","_",".","_","|",".",".",".",".",".",".",".",".",".","_",".","_",".","_",".","_","|"],[".",13,".",13,".",13,".",13,13,"_",13,"_",13,"_",13,"_","|",".",13,".",13,".",13,".",13,13,"_",".","_",".","_",".","_","|"],[16,".",16,".",16,".",16,".",16,"_",16,"_",16,"_",16,"_","|",16,".",16,".",16,".",16,".",16,"_",16,"_",16,"_",16,"_","|"],[".",".",".",".",".",".",".",".",".","_",".","_",".","_",".","_","|",".",".",".",".",".",".",".",".",".","_",".","_",".","_",".","_","|"],[".",".",".",".",".",".",".",".",".","_",".","_",".","_",".","_","|",".",".",".",".",".",".",".",".",".","_",".","_",".","_",".","_","|"],[".",".",".",".",".",".",".",".",".","_",".","_",".","_",".","_","|",".",".",".",".",".",".",".",".",".","_",".","_",".","_",".","_","|"],[".",".",".",".",".",".",".",".",".","_",".","_",".","_",".","_","|",".",".",".",".",".",".",".",".",".","_",".","_",".","_",".","_","|"]],[[".",".",".",".",".",".",".",".",".","_",".",".",".",".",".",".",".",".",".","_",".",".",".",".","|",".",".",".",".",".",".",".",".",".","_",".",".",".",".",".",".",".",".",".","_",".",".",".",".","|"],[".",".",".",".",".",".",".",".",".","_",".",".",".",".",".",".",".",".",".","_",".",".",".",".","|",".",".",".",".",".",".",".",".",".","_",".",".",".",".",".",".",".",".",".","_",".",".",".",".","|"],[".",".",".",".",".",".",".",".",".","_",".",".",".",".",".",".",".",".",".","_",".",".",".",".","|",".",".",".",".",".",".",".",".",".","_",".",".",".",".",".",".",".",".",".","_",".",".",".",".","|"],[".",".",".",".",".",".",".",".",".","_",".",".",".",".",".",".",".",".",".","_",".",".",".",".","|",".",".",".",".",".",".",".",".",".","_",".",".",".",".",".",".",".",".",".","_",".",".",".",".","|"],[".",".",".",".",".",".",".",".",".","_",".",".",".",".",".",".",".",".",".","_",".",".",".",".","|",".",".",".",".",".",".",".",".",".","_",".",".",".",".",".",".",".",".",".","_",".",".",".",".","|"],[".",".",".",".",".",".",".",".",".","_",".",".",".",".",".",".",".",".",".","_",".",".",".",".","|",".",".",".",".",".",".",".",".",".","_",".",".",".",".",".",".",".",".",".","_",".",".",".",".","|"],[0,0,0,0,0,0,1,"b",2,"_",0,0,0,0,0,0,1,"b",2,"_",0,0,0,0,"|",0,0,0,0,0,0,1,"b",2,"_",0,0,0,0,0,0,1,"b",2,"_",0,0,0,0,"|"]],[[".",".",".",".",".",".",".",".",".",".",".",".",".",".",".",".",".",".",".",".",".",".",".",".",".",".",".",".","|",".",".",".",".",".",".",".",".",".",".",".",".",".",".",".",".",".",".",".",".",".",".","|"],[".",".",".",".",".",".",".",".",".",".",".",".",".",".",".",".",".",".",".",".",".",".",".",".",".",".",".",".","|",".",".",".",".",".",".",".",".",".",".",".",".",".",".",".",".",".",".",".",".",".",".","|"],[".",".",".",".",".",".",".",".",".",".",".",".",".",".",".",".",".",".",".",".",".",".",".",".",".",".",".",".","|",".",".",".",".",".",".",".",".",".",".",".",".",".",".",".",".",".",".",".",".",".",".","|"],[".",".",".",".",".",".",".",".",".",".",".",".",".",".",".",".",".",".",".",".",".",".",".",".",".",".",".",".","|",".",".",".",".",".",".",".",".",".",".",".",".",".",".",".",".",".",".",".",".",".",".","|"],[".",".",".",".",".",".",".",".",".",".",".",".",".",".",".",".",".",".",".",".",".",".",".",".",".",".",".",".","|",".",".",".",".",".",".",".",".",".",".",".",".",".",".",".",".",".",".",".",".",".",".","|"],[".",".",".",".",".",".",".",".",".",".",".",".",".",".",".",".",".",".",".",".",".",".",".",".",".",".",".",".","|",".",".",".",".",".",".",".",".",".",".",".",".",".",".",".",".",".",".",".",".",".",".","|"],[0,0,0,0,0,0,1,"b",2,"b",2,0,0,0,0,0,0,1,"b",2,"b",2,0,0,0,0,0,0,"|",0,0,0,0,0,0,1,"b",2,"b",2,0,0,0,0,0,0,1,"b",2,"b",2,"|"]],[[".",".",".",".","|"],[".",".",".",".","|"],[".",".",".",".","|"],[".",".",".",".","|"],[".",".",".",".","|"],[".",".",".",".","|"],[0,0,0,0,"|"]]],"numberofstrings":7,"notes":["DsEb","AsBb","FsGb","CsDb","GsAb","DsEb","GsAb"],"capo":0,"stringnotes":["Eb7","Bb6","Gb5","Db4","Ab3","Eb2","Ab1"],"comments":["Stave 1:","Stave 2:","Stave 3:","Stave 4:","Stave 5:","Stave 6:","Stave 7:","Stave 8:","Stave 9:"],"timing":[["W","W","W","W","W","W","W","W","W","W","W","W","W","W","W","W","W","W","W","W","W","W","W","W","W",null,"W","W","W","W","W","W","W","W","W","W","W","W",null,"W","W","W","W","W","W","W","W","W","W","W","W"],["W","W","W","W","W","W","W",null,"W","W","W","W","W","W","W",null,"W","W","W","W","W","W",null,"W","W","W","W","W","W","W",null,"W","W","W","W","W","W","W","W","W","W","W","W","W","W","W","W","W","W","W"],["W","W","W","W","W","W","W","W","W","W","W","W","W","W","W","W","W","W","W","W","W","W","W","W","W","W","W","W","W","W","W","W","W","W","W","W","W","W","W","W","W","W","W","W","W","W","W","W","W","W","W","W","W","W","W","W","W","W","W"],["W","W","W","W","W","W","W","W","W","W","W",null,"W","W",null,"W","W","W","W","W","W","W","W","W","W","W","W","W","W","W","W","W","W","W","W","W","W","W","W","W","W","W","W","W","W","W"],["W","W","W","W","W","W","W","W","W","W","W","W","W","W","W","W",null,"W","W","W","W","W","W","W","W","W","W","W","W","W","W","W","W","W","W","W","W","W","W","W","W","W","W","W","W"],["W","W","W","W","W","W","W","W","W","W","W","W","W","W","W","W",null,"W","W","W","W","W","W","W","W","W","W","W","W","W","W","W","W"],["W","W","W","W","W","W","W",null,"W","W","W","W","W","W","W","W","W",null,"W","W","W","W","W","W",null,"W","W","W","W","W","W","W",null,"W","W","W","W","W","W","W","W","W",null,"W","W","W","W","W","W"],["W","W","W","W","W","W","W",null,"W",null,"W","W","W","W","W","W","W","W",null,"W",null,"W","W","W","W","W","W","W","W","W","W","W","W","W","W","W","W","W","W","W","W","W","W","W","W","W","W",null,"W",null,"W"],["W","W","W","W"]],"timingvisible":false,"tabcounter":5,"stave":8,"totalstaves":9,"instrument":"7guitar","selectedtuning":"7guitar","version":"13"}

Member for

5 months 2 weeks
About Me
guitar for wtw
Submitted by wtwjoe on Thu, 2021-06-03 17:25