BLACKWATER

01234567891011121314151617181920212223
E
B
G
D
A
E
B
0 1 2 3 4 5 6 7 8 9 10 11 12 13 14 15 16 17 18 19 20 21 22 23
(/) Slide Up  (\) Slide Down  (h) Hammer On  (p) Pull Off  (b) Bend (r) Release (v) Vibrato

Stave 1:

Eb|--------------------------------------------------------------------------|--
Bb|--------------------------------------------------------------------------|--
Gb|--------------------------------------------------------------------------|--
Db|--------------------------------------------------------------------------|--
Ab|--------------------------------------------------------------------------|--
Eb|--------------------------------------------------------------------------|--
Ab|--0--23v--23v--0--23v--23v--0--23v--23v--23v--0--23v--23v--23v--23v--23v--|--

Stave 2:

Eb|----------------------------------------------------------------|--
Bb|----------------------------------------------------------------|--
Gb|----------------------------------------------------------------|--
Db|----------------------------------------------------------------|--
Ab|----------------------------------------------------------------|--
Eb|----------------------------------------------------------------|--
Ab|--0--23v--23v--0--23v--23v--0--23v--23v--0--0--0--23v--0--0--0--|--

Stave 3:

Eb|--------------------------------------------------------------------------|--
Bb|--------------------------------------------------------------------------|--
Gb|--------------------------------------------------------------------------|--
Db|--------------------------------------------------------------------------|--
Ab|--------------------------------------------------------------------------|--
Eb|--------------------------------------------------------------------------|--
Ab|--0--23v--23v--0--23v--23v--0--23v--23v--23v--0--23v--23v--23v--23v--23v--|--

Stave 4:

Eb|----------------------------------------------------------------------|--
Bb|----------------------------------------------------------------------|--
Gb|----------------------------------------------------------------------|--
Db|----------------------------------------------------------------------|--
Ab|----------------------------------------------------------------------|--
Eb|----------------------------------------------------------------------|--
Ab|--0-----23v--0-----23v--0-----23v--23v--23v--23v--23v--23v--23v--23v--|--

Stave 5:

Eb|------------------------------------------------------------------
Bb|------------------------------------------------------------------
Gb|--14----------12----------14----------------------16------17------
Db|------------------------------------------------------------------
Ab|------12--12------12--12------12--12--12--12--12------12------12--
Eb|------------------------------------------------------------------
Ab|------------------------------------------------------------------

Stave 6:

Eb|------------------------------------------------------------------|--
Bb|------------------------------------------------------------------|--
Gb|--14----------12----------14----------------------17------16------|--
Db|------------------------------------------------------------------|--
Ab|------12--12------12--12------12--12--12--12--12------12------12--|--
Eb|------------------------------------------------------------------|--
Ab|------------------------------------------------------------------|--

Stave 7:

Eb|---------------------------------------------------------------|--
Bb|---------------------------------------------------------------|--
Gb|--14----------12----------14------17\16------12h14------12h14--|--
Db|---------------------------------------------------------------|--
Ab|------12--12------12--12------12---------12---------12---------|--
Eb|---------------------------------------------------------------|--
Ab|---------------------------------------------------------------|--

Stave 8:

Eb|--------------------------------------------------------------------------------------|--
Bb|--------------------------------------------------------------------------------------|--
Gb|--------------------------------------------------------------------------------------|--
Db|--------------------------------------------------------------------------------------|--
Ab|--------------------------------------------------------------------------------------|--
Eb|--------------------------------------------------------------------------------------|--
Ab|--0--------------------0-----0--0--0-----------0-----0-----0-----------0-----0-----0--|--

Stave 9:

Eb|--------------------------------------------------------------------------------------------|--
Bb|--------------------------------------------------------------------------------------------|--
Gb|--------------------------------------------------------------------------------------------|--
Db|--------------------------------------------------------------------------------------------|--
Ab|--------------------------------------------------------------------------------------------|--
Eb|--------------------------------------------------------------------------------------------|--
Ab|--0-----------------------0-----0-----0--------------------0--0--0-----0--0--0-----0--0--0--|--

Stave 10:

Eb|-------------------------------------------------------------------------------------------------------------------------------------|--
Bb|-------------------------------------------------------------------------------------------------------------------------------------|--
Gb|-------------------------------------------------------------------------------------------------------------------------------------|--
Db|-------------------------------------------------------------------------------------------------------------------------------------|--
Ab|-------------------------------------------------------------------------------------------------------------------------------------|--
Eb|--1r0--------------------------------1r0--------------------------------------1r0--------------------------------1r0-----------------|--
Ab|--0-------0-----0-----0--0-----0-----0-------0-----0-----0--0--0-----0--0--0--0-------0-----0-----0--0-----0-----0----------0-----0--|--

Stave 11:

Eb|------------------------------------------------------------------------------------------------|--
Bb|------------------------------------------------------------------------------------------------|--
Gb|------------------------------------------------------------------------------------------------|--
Db|------------------------------------------------------------------------------------------------|--
Ab|------------------------------------------------------------------------------------------------|--
Eb|--5--------5--------5-----3--------3/7-----7-----8-----------------8-----5--------5/8-----3-----|--
Ab|-----0--0-----0--0-----0-----0--0-------0-----0-----0--0--3--0--0-----0-----0--0-------0-----0--|--

Stave 12:

Eb|--------------------------------------------------------------------------------------------------|--
Bb|--------------------------------------------------------------------------------------------------|--
Gb|--------------------------------------------------------------------------------------------------|--
Db|--------------------------------------------------------------------------------------------------|--
Ab|--------------------------------------------------------------------2-----0-----------0-----------|--
Eb|--8--------5--------8-----7-----------7-----5-----7--------3--------------------------------3-----|--
Ab|-----0--0-----0--0-----0-----0--0--3-----0-----0-----0--0-----0--0-----0-----0--0--0-----0-----0--|--

Stave 13:

Eb|-------------------------------------------------------------------------------------------------
Bb|-------------------------------------------------------------------------------------------------
Gb|-------------------------------------------------------------------------------------------------
Db|-------------------------------------------------------------------------------------------------
Ab|-------------------------------------------------------------------------------------------------
Eb|--5--------------------------------3/7-----7-----8-----------------------------------8-----3-----
Ab|-----0----------------------------------0-----0-----0-----------------------------------0-----0--

Stave 14:

Eb|--------------------------------------------------------------------------------------------------|--
Bb|--------------------------------------------------------------------------------------------------|--
Gb|--------------------------------------------------------------------------------------------------|--
Db|--------------------------------------------------------------------------------------------------|--
Ab|--------------------------------------------------------------------------------------------------|--
Eb|--8--------5--------8-----7-----------7-----5-----7--------3--------2-----0-----------0-----3-----|--
Ab|-----0--0-----0--0-----0-----0--0--3-----0-----0-----0--0-----0--0-----0-----0--0--0-----0-----0--|--

Stave 15:

Eb|-----------------------------------------------------------------------------------------------------------------|--
Bb|-----------------------------------------------------------------------------------------------------------------|--
Gb|-----------------------------------------------------------------------------------------------------------------|--
Db|-----------------------------------------------------------------------------------------------------------------|--
Ab|--0-----------------------------0-----0--0--0--------------0-----0-----0-----------0--------0-----0-----0-----0--|--
Eb|--0-----------------------------0-----0--0--0--------------0-----0-----0-----------0--------0-----0-----0-----0--|--
Ab|--0-----------------------------0-----0--0--0--------------0-----0-----0-----------0--------0-----0-----0-----0--|--

Stave 16:

Eb|--------------------------------------------------------------------------------------------|--
Bb|--------------------------------------------------------------------------------------------|--
Gb|--------------------------------------------------------------------------------------------|--
Db|--------------------------------------------------------------------------------------------|--
Ab|--8--------0-----0-----8--------8-----8-----8-----8-----0--0--0-----0--0--0-----0--0--0-----|--
Eb|--8--------0-----0-----8--------8-----8-----8-----8-----0--0--0-----0--0--0-----0--0--0-----|--
Ab|--8--------0-----0-----8--------8-----8-----8-----8-----0--0--0-----0--0--0-----0--0--0-----|--

Stave 17:

Eb|-----------------------------------------------------------------------------------------------------------------|--
Bb|-----------------------------------------------------------------------------------------------------------------|--
Gb|-----------------------------------------------------------------------------------------------------------------|--
Db|-----------------------------------------------------------------------------------------------------------------|--
Ab|--0-----------------------------0-----0--0--0--------------------0-----0-----0-----0--------------0-----0-----0--|--
Eb|--0-----------------------------0-----0--0--0--------------------0-----0-----0-----0--------------0-----0-----0--|--
Ab|--0-----------------------------0-----0--0--0--------------------0-----0-----0-----0--------------0-----0-----0--|--

Stave 18:

Eb|--------------------------------------------------------------------------------------------|--
Bb|--------------------------------------------------------------------------------------------|--
Gb|--------------------------------------------------------------------------------------------|--
Db|--------------------------------------------------------------------------------------------|--
Ab|--8--------0-----0-----8--------------------------------0--0--0-----0--0--0-----0--0--0-----|--
Eb|--8--------0-----0-----8--------------------------------0--0--0-----0--0--0-----0--0--0-----|--
Ab|--8--------0-----0-----8--------------------------------0--0--0-----0--0--0-----0--0--0-----|--

Stave 19:

Eb|-----------------------------------------------|--------------------------------------------------|--
Bb|-----------------------------------------------|--------------------------------------------------|--
Gb|-----------------------------------------------|--------------------------------------------------|--
Db|-----------------------------------------------|--------------------------------------------------|--
Ab|-----------------------------------------------|--------------------------------------------------|--
Eb|-----------------------------------------------|--------------------------------------------------|--
Ab|--x--x-----x--x-----x--x-----x--x-----x-----x--|--x--x-----x--x-----x--x-----x--x-----x-----x--x--|--

Stave 20:

Eb|--------------------------------------------------------------------------------------------------|--
Bb|--------------------------------------------------------------------------------------------------|--
Gb|--------------------------------------------------------------------------------------------------|--
Db|--------------------------------------------------------------------------------------------------|--
Ab|--------------------------------------------------------------------------------------------------|--
Eb|--------------------------------------------------------------------------------------------------|--
Ab|--x--x-----x--x-----x--------x--x-----x-----x--x--x--x-----x--x-----x--x-----x--x-----x-----x-----|--

Stave 21:

Eb|-----------------------------------------------|-----------------------------------------------|--
Bb|-----------------------------------------------|-----------------------------------------------|--
Gb|-----------------------------------------------|-----------------------------------------------|--
Db|-----------------------------------------------|-----------------------------------------------|--
Ab|-----------------------------------------------|-----------------------------------------------|--
Eb|-----------------------------------------------|-----------------------------------------------|--
Ab|--0--0-----0--0-----0--0-----0--0-----0-----0--|--0--0-----0--0-----0--0-----0--0-----0-----0--|--

Stave 22:

Eb|-----------------------------------------------|-----------------------------------------------|--
Bb|-----------------------------------------------|-----------------------------------------------|--
Gb|-----------------------------------------------|-----------------------------------------------|--
Db|-----------------------------------------------|-----------------------------------------------|--
Ab|-----------------------------------------------|-----------------------------------------------|--
Eb|-----------------------------------------------|-----------------------------------------------|--
Ab|--0--0-----0--0-----0--0-----0--0-----0-----0--|--0--0-----0--0-----0-----------0-----------0--|--

Stave 23:

Eb|-----------------------------------------------|--
Bb|-----------------------------------------------|--
Gb|-----------------------------------------------|--
Db|-----------------------------------------------|--
Ab|-----------------------------------------------|--
Eb|-----------------------------------------------|--
Ab|--0--0-----0--0-----0-----------0-----------0--|--

Stave 24:

Eb|--------------------------------------------------|--------------------------------------------------|--
Bb|--------------------------------------------------|--------------------------------------------------|--
Gb|--------------------------------------------------|--------------------------------------------------|--
Db|--------------------------------------------------|--------------------------------------------------|--
Ab|--------------------------------------2-----3-----|--------------------------------------3-----2-----|--
Eb|--5--------3--------5--------3--------------------|--5--------3--------5--------3--------------------|--
Ab|-----3--0-----3--0-----3--0-----3--0-----0-----0--|-----3--0-----3--0-----3--0-----3--0-----0-----0--|--

Stave 25:

Eb|--------------------------------------------------|--------------------------------------------------|--
Bb|--------------------------------------------------|--------------------------------------------------|--
Gb|--------------------------------------------------|--------------------------------------------------|--
Db|--------------------------------------------------|--------------------------------------------------|--
Ab|--------------------------------------2-----3-----|--------------------------3--2--------------------|--
Eb|--5--------3--------5--------3--------------------|--5--------3--------5--------------3--5-----3--5--|--
Ab|-----3--0-----3--0-----3--0-----3--0-----0-----0--|-----3--0-----3--0-----0--------0--------0--------|--

Stave 26:

Eb|--------------------------------------------------|--------------------------------------------------|--
Bb|--------------------------------------------------|--------------------------------------------------|--
Gb|--------------------------------------------------|--------------------------------------------------|--
Db|--------------------------------------------------|--------------------------------------------------|--
Ab|--------------------------------------2-----3-----|--------------------------------------3-----2-----|--
Eb|--5--------3--------5--------3--------------------|--5--------3--------5--------3--------------------|--
Ab|-----3--0-----3--0-----3--0-----3--0-----0-----0--|-----3--0-----3--0-----3--0-----3--0-----0-----0--|--

Stave 27:

Eb|--------------------------------------------------|--
Bb|--------------------------------------------------|--
Gb|--------------------------------------------------|--
Db|--------------------------------------------------|--
Ab|--------------------------------------2-----------|--
Eb|--5--------3--------5--------3--------------------|--
Ab|-----3--0-----3--0-----3--0-----3--0-----0--------|--

							http://www.guitartabcreator.com
Chords

Tab Notes
very beginning harmonic should be fret 24 (not 23) interface didn't have enough
Instruments
{"strings":[[[".",".",".",".",".",".",".",".",".",".",".",".",".",".",".",".",".",".",".",".",".",".",".",".",".",".",".",".","|"],[".",".",".",".",".",".",".",".",".",".",".",".",".",".",".",".",".",".",".",".",".",".",".",".",".",".",".",".","|"],[".",".",".",".",".",".",".",".",".",".",".",".",".",".",".",".",".",".",".",".",".",".",".",".",".",".",".",".","|"],[".",".",".",".",".",".",".",".",".",".",".",".",".",".",".",".",".",".",".",".",".",".",".",".",".",".",".",".","|"],[".",".",".",".",".",".",".",".",".",".",".",".",".",".",".",".",".",".",".",".",".",".",".",".",".",".",".",".","|"],[".",".",".",".",".",".",".",".",".",".",".",".",".",".",".",".",".",".",".",".",".",".",".",".",".",".",".",".","|"],[0,23,"v",23,"v",0,23,"v",23,"v",0,23,"v",23,"v",23,"v",0,23,"v",23,"v",23,"v",23,"v",23,"v","|"]],[[".",".",".",".",".",".",".",".",".",".",".",".",".",".",".",".",".",".",".",".",".",".",".","|"],[".",".",".",".",".",".",".",".",".",".",".",".",".",".",".",".",".",".",".",".",".",".",".","|"],[".",".",".",".",".",".",".",".",".",".",".",".",".",".",".",".",".",".",".",".",".",".",".","|"],[".",".",".",".",".",".",".",".",".",".",".",".",".",".",".",".",".",".",".",".",".",".",".","|"],[".",".",".",".",".",".",".",".",".",".",".",".",".",".",".",".",".",".",".",".",".",".",".","|"],[".",".",".",".",".",".",".",".",".",".",".",".",".",".",".",".",".",".",".",".",".",".",".","|"],[0,23,"v",23,"v",0,23,"v",23,"v",0,23,"v",23,"v",0,0,0,23,"v",0,0,0,"|"]],[[".",".",".",".",".",".",".",".",".",".",".",".",".",".",".",".",".",".",".",".",".",".",".",".",".",".",".",".","|"],[".",".",".",".",".",".",".",".",".",".",".",".",".",".",".",".",".",".",".",".",".",".",".",".",".",".",".",".","|"],[".",".",".",".",".",".",".",".",".",".",".",".",".",".",".",".",".",".",".",".",".",".",".",".",".",".",".",".","|"],[".",".",".",".",".",".",".",".",".",".",".",".",".",".",".",".",".",".",".",".",".",".",".",".",".",".",".",".","|"],[".",".",".",".",".",".",".",".",".",".",".",".",".",".",".",".",".",".",".",".",".",".",".",".",".",".",".",".","|"],[".",".",".",".",".",".",".",".",".",".",".",".",".",".",".",".",".",".",".",".",".",".",".",".",".",".",".",".","|"],[0,23,"v",23,"v",0,23,"v",23,"v",0,23,"v",23,"v",23,"v",0,23,"v",23,"v",23,"v",23,"v",23,"v","|"]],[[".","_",".",".",".","_",".",".",".","_",".",".",".",".",".",".",".",".",".",".",".",".",".",".",".",".","|"],[".","_",".",".",".","_",".",".",".","_",".",".",".",".",".",".",".",".",".",".",".",".",".",".",".",".","|"],[".","_",".",".",".","_",".",".",".","_",".",".",".",".",".",".",".",".",".",".",".",".",".",".",".",".","|"],[".","_",".",".",".","_",".",".",".","_",".",".",".",".",".",".",".",".",".",".",".",".",".",".",".",".","|"],[".","_",".",".",".","_",".",".",".","_",".",".",".",".",".",".",".",".",".",".",".",".",".",".",".",".","|"],[".","_",".",".",".","_",".",".",".","_",".",".",".",".",".",".",".",".",".",".",".",".",".",".",".",".","|"],[0,"_",23,"v",0,"_",23,"v",0,"_",23,"v",23,"v",23,"v",23,"v",23,"v",23,"v",23,"v",23,"v","|"]],[[".",".",".",".",".",".",".",".",".",".",".",".",".",".",".","."],[".",".",".",".",".",".",".",".",".",".",".",".",".",".",".","."],[14,".",".",12,".",".",14,".",".",".",".",".",16,".",17,"."],[".",".",".",".",".",".",".",".",".",".",".",".",".",".",".","."],[".",12,12,".",12,12,".",12,12,12,12,12,".",12,".",12],[".",".",".",".",".",".",".",".",".",".",".",".",".",".",".","."],[".",".",".",".",".",".",".",".",".",".",".",".",".",".",".","."]],[[".",".",".",".",".",".",".",".",".",".",".",".",".",".",".",".","|"],[".",".",".",".",".",".",".",".",".",".",".",".",".",".",".",".","|"],[14,".",".",12,".",".",14,".",".",".",".",".",17,".",16,".","|"],[".",".",".",".",".",".",".",".",".",".",".",".",".",".",".",".","|"],[".",12,12,".",12,12,".",12,12,12,12,12,".",12,".",12,"|"],[".",".",".",".",".",".",".",".",".",".",".",".",".",".",".",".","|"],[".",".",".",".",".",".",".",".",".",".",".",".",".",".",".",".","|"]],[[".",".",".",".",".",".",".",".",".",".",".",".",".",".",".",".",".",".",".","|"],[".",".",".",".",".",".",".",".",".",".",".",".",".",".",".",".",".",".",".","|"],[14,".",".",12,".",".",14,".",17,"\\",16,".",12,"h",14,".",12,"h",14,"|"],[".",".",".",".",".",".",".",".",".",".",".",".",".",".",".",".",".",".",".","|"],[".",12,12,".",12,12,".",12,".",".",".",12,".",".",".",12,".",".",".","|"],[".",".",".",".",".",".",".",".",".",".",".",".",".",".",".",".",".",".",".","|"],[".",".",".",".",".",".",".",".",".",".",".",".",".",".",".",".",".",".",".","|"]],[[".","_","_","_","_","_","_",".","_",".",".",".","_","_","_",".","_",".","_",".","_","_","_",".","_",".","_",".","|"],[".","_","_","_","_","_","_",".","_",".",".",".","_","_","_",".","_",".","_",".","_","_","_",".","_",".","_",".","|"],[".","_","_","_","_","_","_",".","_",".",".",".","_","_","_",".","_",".","_",".","_","_","_",".","_",".","_",".","|"],[".","_","_","_","_","_","_",".","_",".",".",".","_","_","_",".","_",".","_",".","_","_","_",".","_",".","_",".","|"],[".","_","_","_","_","_","_",".","_",".",".",".","_","_","_",".","_",".","_",".","_","_","_",".","_",".","_",".","|"],[".","_","_","_","_","_","_",".","_",".",".",".","_","_","_",".","_",".","_",".","_","_","_",".","_",".","_",".","|"],[0,"_","_","_","_","_","_",0,"_",0,0,0,"_","_","_",0,"_",0,"_",0,"_","_","_",0,"_",0,"_",0,"|"]],[[".","_","_","_","_","_","_","_",".","_",".","_",".","_","_","_","_","_","_",".",".",".","_",".",".",".","_",".",".",".","|"],[".","_","_","_","_","_","_","_",".","_",".","_",".","_","_","_","_","_","_",".",".",".","_",".",".",".","_",".",".",".","|"],[".","_","_","_","_","_","_","_",".","_",".","_",".","_","_","_","_","_","_",".",".",".","_",".",".",".","_",".",".",".","|"],[".","_","_","_","_","_","_","_",".","_",".","_",".","_","_","_","_","_","_",".",".",".","_",".",".",".","_",".",".",".","|"],[".","_","_","_","_","_","_","_",".","_",".","_",".","_","_","_","_","_","_",".",".",".","_",".",".",".","_",".",".",".","|"],[".","_","_","_","_","_","_","_",".","_",".","_",".","_","_","_","_","_","_",".",".",".","_",".",".",".","_",".",".",".","|"],[0,"_","_","_","_","_","_","_",0,"_",0,"_",0,"_","_","_","_","_","_",0,0,0,"_",0,0,0,"_",0,0,0,"|"]],[[".",".",".","_",".","_",".","_",".",".","_",".","_",".",".",".","_",".","_",".","_",".",".",".","_",".",".",".",".",".",".","_",".","_",".","_",".",".","_",".","_",".",".",".","_","_",".","_",".","|"],[".",".",".","_",".","_",".","_",".",".","_",".","_",".",".",".","_",".","_",".","_",".",".",".","_",".",".",".",".",".",".","_",".","_",".","_",".",".","_",".","_",".",".",".","_","_",".","_",".","|"],[".",".",".","_",".","_",".","_",".",".","_",".","_",".",".",".","_",".","_",".","_",".",".",".","_",".",".",".",".",".",".","_",".","_",".","_",".",".","_",".","_",".",".",".","_","_",".","_",".","|"],[".",".",".","_",".","_",".","_",".",".","_",".","_",".",".",".","_",".","_",".","_",".",".",".","_",".",".",".",".",".",".","_",".","_",".","_",".",".","_",".","_",".",".",".","_","_",".","_",".","|"],[".",".",".","_",".","_",".","_",".",".","_",".","_",".",".",".","_",".","_",".","_",".",".",".","_",".",".",".",".",".",".","_",".","_",".","_",".",".","_",".","_",".",".",".","_","_",".","_",".","|"],[1,"r",0,"_",".","_",".","_",".",".","_",".","_",1,"r",0,"_",".","_",".","_",".",".",".","_",".",".",".",1,"r",0,"_",".","_",".","_",".",".","_",".","_",1,"r",0,"_","_",".","_",".","|"],[0,".",".","_",0,"_",0,"_",0,0,"_",0,"_",0,".",".","_",0,"_",0,"_",0,0,0,"_",0,0,0,0,".",".","_",0,"_",0,"_",0,0,"_",0,"_",0,".",".","_","_",0,"_",0,"|"]],[[".",".",".",".",".",".",".",".",".",".",".",".",".",".",".",".",".",".",".",".",".",".",".",".",".",".",".",".",".",".",".",".",".",".","|"],[".",".",".",".",".",".",".",".",".",".",".",".",".",".",".",".",".",".",".",".",".",".",".",".",".",".",".",".",".",".",".",".",".",".","|"],[".",".",".",".",".",".",".",".",".",".",".",".",".",".",".",".",".",".",".",".",".",".",".",".",".",".",".",".",".",".",".",".",".",".","|"],[".",".",".",".",".",".",".",".",".",".",".",".",".",".",".",".",".",".",".",".",".",".",".",".",".",".",".",".",".",".",".",".",".",".","|"],[".",".",".",".",".",".",".",".",".",".",".",".",".",".",".",".",".",".",".",".",".",".",".",".",".",".",".",".",".",".",".",".",".",".","|"],[5,".",".",5,".",".",5,".",3,".",".",3,"/",7,".",7,".",8,".",".",".",".",".",8,".",5,".",".",5,"/",8,".",3,".","|"],[".",0,0,".",0,0,".",0,".",0,0,".",".",".",0,".",0,".",0,0,3,0,0,".",0,".",0,0,".",".",".",0,".",0,"|"]],[[".",".",".",".",".",".",".",".",".",".",".",".",".",".",".",".",".",".",".",".",".",".",".",".",".",".",".",".",".",".",".",".","|"],[".",".",".",".",".",".",".",".",".",".",".",".",".",".",".",".",".",".",".",".",".",".",".",".",".",".",".",".",".",".",".",".","|"],[".",".",".",".",".",".",".",".",".",".",".",".",".",".",".",".",".",".",".",".",".",".",".",".",".",".",".",".",".",".",".",".","|"],[".",".",".",".",".",".",".",".",".",".",".",".",".",".",".",".",".",".",".",".",".",".",".",".",".",".",".",".",".",".",".",".","|"],[".",".",".",".",".",".",".",".",".",".",".",".",".",".",".",".",".",".",".",".",".",".",2,".",0,".",".",".",0,".",".",".","|"],[8,".",".",5,".",".",8,".",7,".",".",".",7,".",5,".",7,".",".",3,".",".",".",".",".",".",".",".",".",".",3,".","|"],[".",0,0,".",0,0,".",0,".",0,0,3,".",0,".",0,".",0,0,".",0,0,".",0,".",0,0,0,".",0,".",0,"|"]],[[".",".","_","_","_","_","_","_","_","_","_",".",".",".",".",".",".",".",".","_","_","_","_","_","_","_","_","_","_",".",".",".","."],[".",".","_","_","_","_","_","_","_","_","_",".",".",".",".",".",".",".",".","_","_","_","_","_","_","_","_","_","_",".",".",".","."],[".",".","_","_","_","_","_","_","_","_","_",".",".",".",".",".",".",".",".","_","_","_","_","_","_","_","_","_","_",".",".",".","."],[".",".","_","_","_","_","_","_","_","_","_",".",".",".",".",".",".",".",".","_","_","_","_","_","_","_","_","_","_",".",".",".","."],[".",".","_","_","_","_","_","_","_","_","_",".",".",".",".",".",".",".",".","_","_","_","_","_","_","_","_","_","_",".",".",".","."],[5,".","_","_","_","_","_","_","_","_","_",3,"/",7,".",7,".",8,".","_","_","_","_","_","_","_","_","_","_",8,".",3,"."],[".",0,"_","_","_","_","_","_","_","_","_",".",".",".",0,".",0,".",0,"_","_","_","_","_","_","_","_","_","_",".",0,".",0]],[[".",".",".",".",".",".",".",".",".",".",".",".",".",".",".",".",".",".",".",".",".",".",".",".",".",".",".",".",".",".",".",".","|"],[".",".",".",".",".",".",".",".",".",".",".",".",".",".",".",".",".",".",".",".",".",".",".",".",".",".",".",".",".",".",".",".","|"],[".",".",".",".",".",".",".",".",".",".",".",".",".",".",".",".",".",".",".",".",".",".",".",".",".",".",".",".",".",".",".",".","|"],[".",".",".",".",".",".",".",".",".",".",".",".",".",".",".",".",".",".",".",".",".",".",".",".",".",".",".",".",".",".",".",".","|"],[".",".",".",".",".",".",".",".",".",".",".",".",".",".",".",".",".",".",".",".",".",".",".",".",".",".",".",".",".",".",".",".","|"],[8,".",".",5,".",".",8,".",7,".",".",".",7,".",5,".",7,".",".",3,".",".",2,".",0,".",".",".",0,".",3,".","|"],[".",0,0,".",0,0,".",0,".",0,0,3,".",0,".",0,".",0,0,".",0,0,".",0,".",0,0,0,".",0,".",0,"|"]],[[".","_","_","_","_","_","_","_","_","_",".","_",".",".",".","_","_","_","_",".","_",".","_",".","_","_","_",".","_","_",".","_",".","_",".","_",".","|"],[".","_","_","_","_","_","_","_","_","_",".","_",".",".",".","_","_","_","_",".","_",".","_",".","_","_","_",".","_","_",".","_",".","_",".","_",".","|"],[".","_","_","_","_","_","_","_","_","_",".","_",".",".",".","_","_","_","_",".","_",".","_",".","_","_","_",".","_","_",".","_",".","_",".","_",".","|"],[".","_","_","_","_","_","_","_","_","_",".","_",".",".",".","_","_","_","_",".","_",".","_",".","_","_","_",".","_","_",".","_",".","_",".","_",".","|"],[0,"_","_","_","_","_","_","_","_","_",0,"_",0,0,0,"_","_","_","_",0,"_",0,"_",0,"_","_","_",0,"_","_",0,"_",0,"_",0,"_",0,"|"],[0,"_","_","_","_","_","_","_","_","_",0,"_",0,0,0,"_","_","_","_",0,"_",0,"_",0,"_","_","_",0,"_","_",0,"_",0,"_",0,"_",0,"|"],[0,"_","_","_","_","_","_","_","_","_",0,"_",0,0,0,"_","_","_","_",0,"_",0,"_",0,"_","_","_",0,"_","_",0,"_",0,"_",0,"_",0,"|"]],[[".","_","_",".","_",".","_",".","_","_",".","_",".","_",".","_",".","_",".",".",".","_",".",".",".","_",".",".",".","_","|"],[".","_","_",".","_",".","_",".","_","_",".","_",".","_",".","_",".","_",".",".",".","_",".",".",".","_",".",".",".","_","|"],[".","_","_",".","_",".","_",".","_","_",".","_",".","_",".","_",".","_",".",".",".","_",".",".",".","_",".",".",".","_","|"],[".","_","_",".","_",".","_",".","_","_",".","_",".","_",".","_",".","_",".",".",".","_",".",".",".","_",".",".",".","_","|"],[8,"_","_",0,"_",0,"_",8,"_","_",8,"_",8,"_",8,"_",8,"_",0,0,0,"_",0,0,0,"_",0,0,0,"_","|"],[8,"_","_",0,"_",0,"_",8,"_","_",8,"_",8,"_",8,"_",8,"_",0,0,0,"_",0,0,0,"_",0,0,0,"_","|"],[8,"_","_",0,"_",0,"_",8,"_","_",8,"_",8,"_",8,"_",8,"_",0,0,0,"_",0,0,0,"_",0,0,0,"_","|"]],[[".","_","_","_","_","_","_","_","_","_",".","_",".",".",".","_","_","_","_","_","_",".","_",".","_",".","_",".","_","_","_","_",".","_",".","_",".","|"],[".","_","_","_","_","_","_","_","_","_",".","_",".",".",".","_","_","_","_","_","_",".","_",".","_",".","_",".","_","_","_","_",".","_",".","_",".","|"],[".","_","_","_","_","_","_","_","_","_",".","_",".",".",".","_","_","_","_","_","_",".","_",".","_",".","_",".","_","_","_","_",".","_",".","_",".","|"],[".","_","_","_","_","_","_","_","_","_",".","_",".",".",".","_","_","_","_","_","_",".","_",".","_",".","_",".","_","_","_","_",".","_",".","_",".","|"],[0,"_","_","_","_","_","_","_","_","_",0,"_",0,0,0,"_","_","_","_","_","_",0,"_",0,"_",0,"_",0,"_","_","_","_",0,"_",0,"_",0,"|"],[0,"_","_","_","_","_","_","_","_","_",0,"_",0,0,0,"_","_","_","_","_","_",0,"_",0,"_",0,"_",0,"_","_","_","_",0,"_",0,"_",0,"|"],[0,"_","_","_","_","_","_","_","_","_",0,"_",0,0,0,"_","_","_","_","_","_",0,"_",0,"_",0,"_",0,"_","_","_","_",0,"_",0,"_",0,"|"]],[[".","_","_",".","_",".","_",".","_","_","_","_","_","_","_","_","_","_",".",".",".","_",".",".",".","_",".",".",".","_","|"],[".","_","_",".","_",".","_",".","_","_","_","_","_","_","_","_","_","_",".",".",".","_",".",".",".","_",".",".",".","_","|"],[".","_","_",".","_",".","_",".","_","_","_","_","_","_","_","_","_","_",".",".",".","_",".",".",".","_",".",".",".","_","|"],[".","_","_",".","_",".","_",".","_","_","_","_","_","_","_","_","_","_",".",".",".","_",".",".",".","_",".",".",".","_","|"],[8,"_","_",0,"_",0,"_",8,"_","_","_","_","_","_","_","_","_","_",0,0,0,"_",0,0,0,"_",0,0,0,"_","|"],[8,"_","_",0,"_",0,"_",8,"_","_","_","_","_","_","_","_","_","_",0,0,0,"_",0,0,0,"_",0,0,0,"_","|"],[8,"_","_",0,"_",0,"_",8,"_","_","_","_","_","_","_","_","_","_",0,0,0,"_",0,0,0,"_",0,0,0,"_","|"]],[[".",".","_",".",".","_",".",".","_",".",".","_",".","_",".","|",".",".","_",".",".","_",".",".","_",".",".","_",".","_",".",".","|"],[".",".","_",".",".","_",".",".","_",".",".","_",".","_",".","|",".",".","_",".",".","_",".",".","_",".",".","_",".","_",".",".","|"],[".",".","_",".",".","_",".",".","_",".",".","_",".","_",".","|",".",".","_",".",".","_",".",".","_",".",".","_",".","_",".",".","|"],[".",".","_",".",".","_",".",".","_",".",".","_",".","_",".","|",".",".","_",".",".","_",".",".","_",".",".","_",".","_",".",".","|"],[".",".","_",".",".","_",".",".","_",".",".","_",".","_",".","|",".",".","_",".",".","_",".",".","_",".",".","_",".","_",".",".","|"],[".",".","_",".",".","_",".",".","_",".",".","_",".","_",".","|",".",".","_",".",".","_",".",".","_",".",".","_",".","_",".",".","|"],["x0","x0","_","x0","x0","_","x0","x0","_","x0","x0","_","x0","_","x0","|","x0","x0","_","x0","x0","_","x0","x0","_","x0","x0","_","x0","_","x0","x0","|"]],[[".",".","_",".",".","_",".","_","_",".",".","_",".","_",".",".",".",".","_",".",".","_",".",".","_",".",".","_",".","_",".","_","|"],[".",".","_",".",".","_",".","_","_",".",".","_",".","_",".",".",".",".","_",".",".","_",".",".","_",".",".","_",".","_",".","_","|"],[".",".","_",".",".","_",".","_","_",".",".","_",".","_",".",".",".",".","_",".",".","_",".",".","_",".",".","_",".","_",".","_","|"],[".",".","_",".",".","_",".","_","_",".",".","_",".","_",".",".",".",".","_",".",".","_",".",".","_",".",".","_",".","_",".","_","|"],[".",".","_",".",".","_",".","_","_",".",".","_",".","_",".",".",".",".","_",".",".","_",".",".","_",".",".","_",".","_",".","_","|"],[".",".","_",".",".","_",".","_","_",".",".","_",".","_",".",".",".",".","_",".",".","_",".",".","_",".",".","_",".","_",".","_","|"],["x0","x0","_","x0","x0","_","x0","_","_","x0","x0","_","x0","_","x0","x0","x0","x0","_","x0","x0","_","x0","x0","_","x0","x0","_","x0","_","x0","_","|"]],[[".",".","_",".",".","_",".",".","_",".",".","_",".","_",".","|",".",".","_",".",".","_",".",".","_",".",".","_",".","_",".","|"],[".",".","_",".",".","_",".",".","_",".",".","_",".","_",".","|",".",".","_",".",".","_",".",".","_",".",".","_",".","_",".","|"],[".",".","_",".",".","_",".",".","_",".",".","_",".","_",".","|",".",".","_",".",".","_",".",".","_",".",".","_",".","_",".","|"],[".",".","_",".",".","_",".",".","_",".",".","_",".","_",".","|",".",".","_",".",".","_",".",".","_",".",".","_",".","_",".","|"],[".",".","_",".",".","_",".",".","_",".",".","_",".","_",".","|",".",".","_",".",".","_",".",".","_",".",".","_",".","_",".","|"],[".",".","_",".",".","_",".",".","_",".",".","_",".","_",".","|",".",".","_",".",".","_",".",".","_",".",".","_",".","_",".","|"],[0,0,"_",0,0,"_",0,0,"_",0,0,"_",0,"_",0,"|",0,0,"_",0,0,"_",0,0,"_",0,0,"_",0,"_",0,"|"]],[[".",".","_",".",".","_",".",".","_",".",".","_",".","_",".","|",".",".","_",".",".","_",".","_","_","_",".","_","_","_",".","|"],[".",".","_",".",".","_",".",".","_",".",".","_",".","_",".","|",".",".","_",".",".","_",".","_","_","_",".","_","_","_",".","|"],[".",".","_",".",".","_",".",".","_",".",".","_",".","_",".","|",".",".","_",".",".","_",".","_","_","_",".","_","_","_",".","|"],[".",".","_",".",".","_",".",".","_",".",".","_",".","_",".","|",".",".","_",".",".","_",".","_","_","_",".","_","_","_",".","|"],[".",".","_",".",".","_",".",".","_",".",".","_",".","_",".","|",".",".","_",".",".","_",".","_","_","_",".","_","_","_",".","|"],[".",".","_",".",".","_",".",".","_",".",".","_",".","_",".","|",".",".","_",".",".","_",".","_","_","_",".","_","_","_",".","|"],[0,0,"_",0,0,"_",0,0,"_",0,0,"_",0,"_",0,"|",0,0,"_",0,0,"_",0,"_","_","_",0,"_","_","_",0,"|"]],[[".",".","_",".",".","_",".","_","_","_",".","_","_","_",".","|"],[".",".","_",".",".","_",".","_","_","_",".","_","_","_",".","|"],[".",".","_",".",".","_",".","_","_","_",".","_","_","_",".","|"],[".",".","_",".",".","_",".","_","_","_",".","_","_","_",".","|"],[".",".","_",".",".","_",".","_","_","_",".","_","_","_",".","|"],[".",".","_",".",".","_",".","_","_","_",".","_","_","_",".","|"],[0,0,"_",0,0,"_",0,"_","_","_",0,"_","_","_",0,"|"]],[[".",".",".",".",".",".",".",".",".",".",".",".",".",".",".",".","|",".",".",".",".",".",".",".",".",".",".",".",".",".",".",".",".","|"],[".",".",".",".",".",".",".",".",".",".",".",".",".",".",".",".","|",".",".",".",".",".",".",".",".",".",".",".",".",".",".",".",".","|"],[".",".",".",".",".",".",".",".",".",".",".",".",".",".",".",".","|",".",".",".",".",".",".",".",".",".",".",".",".",".",".",".",".","|"],[".",".",".",".",".",".",".",".",".",".",".",".",".",".",".",".","|",".",".",".",".",".",".",".",".",".",".",".",".",".",".",".",".","|"],[".",".",".",".",".",".",".",".",".",".",".",".",2,".",3,".","|",".",".",".",".",".",".",".",".",".",".",".",".",3,".",2,".","|"],[5,".",".",3,".",".",5,".",".",3,".",".",".",".",".",".","|",5,".",".",3,".",".",5,".",".",3,".",".",".",".",".",".","|"],[".",3,0,".",3,0,".",3,0,".",3,0,".",0,".",0,"|",".",3,0,".",3,0,".",3,0,".",3,0,".",0,".",0,"|"]],[[".",".",".",".",".",".",".",".",".",".",".",".",".",".",".",".","|",".",".",".",".",".",".",".",".",".",".",".",".",".",".",".",".","|"],[".",".",".",".",".",".",".",".",".",".",".",".",".",".",".",".","|",".",".",".",".",".",".",".",".",".",".",".",".",".",".",".",".","|"],[".",".",".",".",".",".",".",".",".",".",".",".",".",".",".",".","|",".",".",".",".",".",".",".",".",".",".",".",".",".",".",".",".","|"],[".",".",".",".",".",".",".",".",".",".",".",".",".",".",".",".","|",".",".",".",".",".",".",".",".",".",".",".",".",".",".",".",".","|"],[".",".",".",".",".",".",".",".",".",".",".",".",2,".",3,".","|",".",".",".",".",".",".",".",".",3,2,".",".",".",".",".",".","|"],[5,".",".",3,".",".",5,".",".",3,".",".",".",".",".",".","|",5,".",".",3,".",".",5,".",".",".",".",3,5,".",3,5,"|"],[".",3,0,".",3,0,".",3,0,".",3,0,".",0,".",0,"|",".",3,0,".",3,0,".",0,".",".",0,".",".",0,".",".","|"]],[[".",".",".",".",".",".",".",".",".",".",".",".",".",".",".",".","|",".",".",".",".",".",".",".",".",".",".",".",".",".",".",".",".","|"],[".",".",".",".",".",".",".",".",".",".",".",".",".",".",".",".","|",".",".",".",".",".",".",".",".",".",".",".",".",".",".",".",".","|"],[".",".",".",".",".",".",".",".",".",".",".",".",".",".",".",".","|",".",".",".",".",".",".",".",".",".",".",".",".",".",".",".",".","|"],[".",".",".",".",".",".",".",".",".",".",".",".",".",".",".",".","|",".",".",".",".",".",".",".",".",".",".",".",".",".",".",".",".","|"],[".",".",".",".",".",".",".",".",".",".",".",".",2,".",3,".","|",".",".",".",".",".",".",".",".",".",".",".",".",3,".",2,".","|"],[5,".",".",3,".",".",5,".",".",3,".",".",".",".",".",".","|",5,".",".",3,".",".",5,".",".",3,".",".",".",".",".",".","|"],[".",3,0,".",3,0,".",3,0,".",3,0,".",0,".",0,"|",".",3,0,".",3,0,".",3,0,".",3,0,".",0,".",0,"|"]],[[".",".",".",".",".",".",".",".",".",".",".",".",".",".","_","_","|"],[".",".",".",".",".",".",".",".",".",".",".",".",".",".","_","_","|"],[".",".",".",".",".",".",".",".",".",".",".",".",".",".","_","_","|"],[".",".",".",".",".",".",".",".",".",".",".",".",".",".","_","_","|"],[".",".",".",".",".",".",".",".",".",".",".",".",2,".","_","_","|"],[5,".",".",3,".",".",5,".",".",3,".",".",".",".","_","_","|"],[".",3,0,".",3,0,".",3,0,".",3,0,".",0,"_","_","|"]]],"numberofstrings":7,"notes":["DsEb","AsBb","FsGb","CsDb","GsAb","DsEb","GsAb"],"capo":0,"stringnotes":["Eb7","Bb6","Gb5","Db4","Ab3","Eb2","Ab1"],"comments":["Stave 1:","Stave 2:","Stave 3:","Stave 4:","Stave 5:","Stave 6:","Stave 7:","Stave 8:","Stave 9:","Stave 10:","Stave 11:","Stave 12:","Stave 13:","Stave 14:","Stave 15:","Stave 16:","Stave 17:","Stave 18:","Stave 19:","Stave 20:",null,null,"Stave 23:","Stave 24:","Stave 25:","Stave 26:","Stave 27:"],"timing":[["W","W",null,"W",null,"W","W",null,"W",null,"W","W",null,"W",null,"W",null,"W","W",null,"W",null,"W",null,"W",null,"W",null,null,"W","W",null,"W",null,"W","W",null,"W",null,"W","W",null,"W",null,"W","W","W","W",null,"W","W"],["W","W",null,"W",null,"W","W",null,"W",null,"W","W",null,"W",null,"W","W","W","W",null,"W","W","W","W","W",null,"W",null,"W","W",null,"W",null,"W","W","W","W","W","W",null,"W","W",null,"W",null,"W",null,"W",null,"W",null,"W"],["W","W",null,"W",null,"W","W",null,"W",null,"W","W",null,"W",null,"W",null,"W","W",null,"W",null,"W",null,"W",null,"W"],["W","W","W",null,"W","W","W",null,"W","W","W",null,"W",null,"W",null,"W",null,"W",null,"W",null,"W",null,"W",null,"W","W","W"],["W","W","W","W","W","W","W","W","W","W","W","W","W","W","W","W"],["W","W","W","W","W","W","W","W","W","W","W","W","W","W","W","W"],["W","W","W","W","W","W","W","W","W",null,"W","W","W",null,"W","W","W",null,"W"],["W","W","W","W","W","W","W","W","W","W","W","W","W","W","W","W","W","W","W","W","W","W","W","W","W","W","W","W","W","W","W","W","W","W"],["W","W","W","W","W","W","W","W","W","W","W","W","W","W","W","W","W","W","W","W","W","W","W","W","W","W","W","W","W","W"],["W","W","W","W","W","W","W","W","W","W","W","W","W","W","W","W","W","W","W","W","W","W","W","W","W","W","W","W","W",null,"W","W","W","W","W","W","W","W","W","W","W","W",null,"W","W","W","W","W","W","W"],["W","W","W","W","W","W","W","W","W","W","W","W",null,"W","W","W","W","W","W","W","W","W","W","W","W","W","W","W","W","W","W","W","W","W"],["W","W","W","W","W","W","W","W","W","W","W","W","W","W","W","W","W","W","W","W","W","W","W","W","W","W","W","W","W","W","W","W"],["W","W","W","W","W","W","W","W","W","W","W","W",null,"W","W","W","W","W","W","W","W","W","W","W","W","W","W","W","W","W","W","W","W"],["W","W","W","W","W","W","W","W","W","W","W","W","W","W","W","W","W","W","W","W","W","W","W","W","W","W","W","W","W","W","W","W","W","W"],["W","W","W","W","W","W","W","W","W","W","W","W","W","W","W","W","W","W","W","W","W","W","W","W","W","W","W","W","W","W","W","W","W","W","W","W","W","W"],["W","W","W","W","W","W","W","W","W","W","W","W","W","W","W","W","W","W","W","W","W","W","W","W","W","W","W","W","W","W"],["W","W","W","W","W","W","W","W","W","W","W","W","W","W","W","W","W","W","W","W","W","W","W","W","W","W","W","W","W","W","W","W","W","W","W","W","W"],["W","W","W","W","W","W","W","W","W","W","W","W","W","W","W","W","W","W","W","W","W","W","W","W","W","W","W","W","W","W"],["W","W","W","W","W","W","W","W","W","W","W","W","W","W","W",null,"W","W","W","W","W","W","W","W","W","W","W","W","W","W","W","W"],["W","W","W","W","W","W","W","W","W","W","W","W","W","W","W","W","W","W","W","W","W","W","W","W","W","W","W","W","W","W","W","W"],null,null,["W","W","W","W","W","W","W","W","W","W","W","W","W","W","W"],["W","W","W","W","W","W","W","W","W","W","W","W","W","W","W","W",null,"W","W","W","W","W","W","W","W","W","W","W","W","W","W","W","W"],["W","W","W","W","W","W","W","W","W","W","W","W","W","W","W","W",null,"W","W","W","W","W","W","W","W","W","W","W","W","W","W","W","W"],["W","W","W","W","W","W","W","W","W","W","W","W","W","W","W","W",null,"W","W","W","W","W","W","W","W","W","W","W","W","W","W","W","W"],["W","W","W","W","W","W","W","W","W","W","W","W","W","W","W","W"]],"timingvisible":false,"tabcounter":17,"stave":26,"totalstaves":27,"instrument":"7guitar","selectedtuning":"7guitar","version":"13"}

Member for

5 months 2 weeks
About Me
guitar for wtw
Submitted by wtwjoe on Thu, 2021-06-03 19:10