It Hurts Me Too (Peter Green w/ John Mayall)

01234567891011121314151617181920212223
E
B
G
D
A
E
B
0 1 2 3 4 5 6 7 8 9 10 11 12 13 14 15 16 17 18 19 20 21 22 23
(/) Slide Up  (\) Slide Down  (h) Hammer On  (p) Pull Off  (b) Bend (r) Release (v) Vibrato

Stave 1:

E|------------------
B|--------------10--
G|------11--12------
D|--12--------------
A|------------------
E|------------------

Stave 2:

E|---------------------------
B|--10--13b15r13--10---------
G|--------------------12/14--
D|---------------------------
A|---------------------------
E|---------------------------

Stave 3:

E|------10-----------------
B|----------13\12--10------
G|-------------------------
D|--12-----------------12--
A|-------------------------
E|-------------------------

Stave 4:

E|-------------------------
B|-------------------------
G|-------------------------
D|---------12--14------12--
A|--12/14----------14------
E|-------------------------

Stave 5:

E|------10------10--12b14--
B|--10------10-------------
G|-------------------------
D|-------------------------
A|-------------------------
E|-------------------------

Stave 6:

E|------12b14--12b14--10------
B|--10--------------------10--
G|----------------------------
D|----------------------------
A|----------------------------
E|----------------------------

Stave 7:

E|---------------------
B|--13-----------------
G|------13r12--10------
D|-----------------12--
A|---------------------
E|---------------------

Stave 8:

E|-------------10------------------------------------------
B|---------10------13--12--10------10----------------------
G|--10h11----------------------12------12--10--11----------
D|-------------------------------------------------12------
A|-----------------------------------------------------12--
E|---------------------------------------------------------

							http://www.guitartabcreator.com
Chords

genre
Instruments
{"title":"It Hurts Me Too (Peter Green w/ John Mayall)","strings":[[[".",".",".","."],[".",".",".",10],[".",11,12,"."],[12,".",".","."],[".",".",".","."],[".",".",".","."]],[[".",".",".",".",".",".",".",".",".","."],[10,13,"b",15,"r",13,10,".",".","."],[".",".",".",".",".",".",".",12,"/",14],[".",".",".",".",".",".",".",".",".","."],[".",".",".",".",".",".",".",".",".","."],[".",".",".",".",".",".",".",".",".","."]],[[".",10,".",".",".",".","."],[".",".",13,"\\",12,10,"."],[".",".",".",".",".",".","."],[12,".",".",".",".",".",12],[".",".",".",".",".",".","."],[".",".",".",".",".",".","."]],[[".",".",".",".",".",".","."],[".",".",".",".",".",".","."],[".",".",".",".",".",".","."],[".",".",".",12,14,".",12],[12,"/",14,".",".",14,"."],[".",".",".",".",".",".","."]],[[".",10,".",10,12,"b",14],[10,".",10,".",".",".","."],[".",".",".",".",".",".","."],[".",".",".",".",".",".","."],[".",".",".",".",".",".","."],[".",".",".",".",".",".","."]],[[".",12,"b",14,12,"b",14,10,"."],[10,".",".",".",".",".",".",".",10],[".",".",".",".",".",".",".",".","."],[".",".",".",".",".",".",".",".","."],[".",".",".",".",".",".",".",".","."],[".",".",".",".",".",".",".",".","."]],[[".",".",".",".",".","."],[13,".",".",".",".","."],[".",13,"r",12,10,"."],[".",".",".",".",".",12],[".",".",".",".",".","."],[".",".",".",".",".","."]],[[".",".",".",".",10,".",".",".",".",".",".",".",".",".","."],[".",".",".",10,".",13,12,10,".",10,".",".",".",".","."],[10,"h",11,".",".",".",".",".",12,".",12,10,11,".","."],[".",".",".",".",".",".",".",".",".",".",".",".",".",12,"."],[".",".",".",".",".",".",".",".",".",".",".",".",".",".",12],[".",".",".",".",".",".",".",".",".",".",".",".",".",".","."]]],"numberofstrings":6,"notes":["E","B","G","D","A","E","B"],"capo":0,"stringnotes":["E4","B3","G3","D3","A2","E2"],"comments":["Stave 1:","Stave 2:","Stave 3:","Stave 4:","Stave 5:","Stave 6:","Stave 7:","Stave 8:"],"timing":[["W","W","W","W","W","W"],["W","W",null,"W",null,"W","W","W",null,"W"],["W","W","W",null,"W","W","W"],["W",null,"W","W","W","W","W"],["W","W","W","W","W",null,"W"],["W","W",null,"W","W",null,"W","W","W"],["W","W",null,"W","W","W"],["W",null,"W","W","W","W","W","W","W","W","W","W","W","W","W"]],"timingvisible":false,"tabcounter":15,"stave":7,"totalstaves":8,"instrument":"6guitar","selectedtuning":"6_standard","version":"13"}

Member for

2 years 9 months
Submitted by wristshot on Sat, 2020-04-04 10:37