Sound will begin in 5 seconds

Slow Blues - Jimi Hendrix

Chords
01234567891011121314151617181920212223
E
B
G
D
A
E
B
0 1 2 3 4 5 6 7 8 9 10 11 12 13 14 15 16 17 18 19 20 21 22 23
Song Science #1: How Pros Use 6 Chords to Write Hit Songs
(/) Slide Up  (\) Slide Down  (h) Hammer On  (p) Pull Off  (b) Bend (r) Release (v) Vibrato

Stave 1:

E|-------3-----------------------7v--5-------------------------------------------------------------------
B|--6b7-----6--3---------------------x-------------------------------------------------------------------
G|----------------3---------5/7------5-----7--7-----9--9--------------7b9r7------------------------------
D|-------------------5v--------------------6--6-----8--8-------5v------------7b9r7--5--7-------5v--------
A|-----------------------------------------x--x-----x--x--5h7-----------------------------5h7------------
E|-----------------------------------------6--6-----8--8-------------------------------------------------

Stave 2:

E|---------15------------------------------------------------------------------------------------------------------------
B|--15h17----------------------------------------------------------------------------------------------------------------
G|----------------14h16p14--12--14-----14b16b16b16r12v-------------------------------------------------------------------
D|-----------------------------------------------------------------17--17v------------------------17p15\14v--------------
A|---------------------------------------------------------15--17-----------15--17--14-----15h17-------------------------
E|-----------------------------------------------------------------------------------------------------------------------

Stave 3:

E|----------------------------------------------------------------------------------------------------15----------------------
B|----------------------------------------------------------------------------------------------------------------------------
G|--17b19--15b16-----------------15--17--17--17--17b19---------15--17--17--17b19--17v--15v----------------12v--15b16\---------
D|----------------17v--------17----------------------------17-------------------------------17\12-----------------------------
A|----------------------------------------------------------------------------------------------------------------------------
E|----------------------------------------------------------------------------------------------------------------------------

Stave 4:

E|--------------------------------------------------------3--------------7v--5-----3--5--3----------------3--6--3v-----
B|-----------------------------------------------------3-----6b8r6-----------x-----x--x--x-------------3---------------
G|--14--------------------------------------------5b7---------------5/7------5-----4--5--4--------5b7------------------
D|------17--15--15--14v-----15--14--12---------------------------------------------------------------------------------
A|--------------------------------------15\12--------------------------------------------------------------------------
E|---------------------------------------------------------------------------------------------------------------------

Stave 5:

E|---------7v--5-----3--5--3-------------------------7v--5-----3--5--3---------------------------------------------
B|-------------x-----x--x--x--------8b11r8v--------------x-----x--x--x-----6b7---------------------------6-8\6--5--
G|-----/7------5-----4--5--4--------------------5/7------5-----4--5--4----------5--3---------------------5/7-5--x--
D|------------------------------------------------------------------------------------5--5v-----------5---------5--
A|----------------------------------------------------------------------------------------------5--7---------------
E|-----------------------------------------------------------------------------------------------------------------

Stave 6:

E|----------------------------------------------------------------------------------------------------------------------------
B|--18b20r18--15v-----------------------------------------18b20r18--15v-----15b17r15----------18b20--18b20--18b20--15v--------
G|--------------------17b19r17--15--17------15--17b19---------------------------------12v-------------------------------------
D|--------------------------------------17------------------------------------------------------------------------------------
A|----------------------------------------------------------------------------------------------------------------------------
E|----------------------------------------------------------------------------------------------------------------------------

Stave 7:

E|--------------------------------------------------------------------------
B|--15h17b19r17----------18b20r18--15v-----13h15p13h15p13\11--13--11\8v-----
G|---------------12v--------------------------------------------------------
D|--------------------------------------------------------------------------
A|--------------------------------------------------------------------------
E|--------------------------------------------------------------------------

http://www.guitartabcreator.com
Guitar Tab Creator is intended to store guitar tab created through the tool. It currently does not support in-line text editing. Any text you place in here will be lost. If you need to comment on your tab, please use the "Tab Notes" section located below.