Guitar Lesson 1 - Chromatic finger exercise

Chords

01234567891011121314151617181920212223
E
B
G
D
A
E
B
0 1 2 3 4 5 6 7 8 9 10 11 12 13 14 15 16 17 18 19 20 21 22 23
(/) Slide Up  (\) Slide Down  (h) Hammer On  (p) Pull Off  (b) Bend (r) Release (v) Vibrato

Stave 1:

E|-----------------
B|-----------------
G|-----------------
D|-----------------
A|-----------------
E|--0--1--2--3--4--

Stave 2:

E|-----------------
B|-----------------
G|-----------------
D|-----------------
A|--0--1--2--3--4--
E|-----------------

Stave 3:

E|-----------------
B|-----------------
G|-----------------
D|--0--1--2--3--4--
A|-----------------
E|-----------------

Stave 4:

E|-----------------
B|-----------------
G|--0--1--2--3--4--
D|-----------------
A|-----------------
E|-----------------

Stave 5:

E|-----------------
B|--0--1--2--3--4--
G|-----------------
D|-----------------
A|-----------------
E|-----------------

Stave 6:

E|--0--1--2--3--4--
B|-----------------
G|-----------------
D|-----------------
A|-----------------
E|-----------------

							http://www.guitartabcreator.com
Instruments
{"title":"5 String Bass Lesson 1 - Chromatic finger exercise","strings":[[[".",".",".",".","."],[".",".",".",".","."],[".",".",".",".","."],[".",".",".",".","."],[".",".",".",".","."],[0,1,2,3,4]],[[".",".",".",".","."],[".",".",".",".","."],[".",".",".",".","."],[".",".",".",".","."],[0,1,2,3,4],[".",".",".",".","."]],[[".",".",".",".","."],[".",".",".",".","."],[".",".",".",".","."],[0,1,2,3,4],[".",".",".",".","."],[".",".",".",".","."]],[[".",".",".",".","."],[".",".",".",".","."],[0,1,2,3,4],[".",".",".",".","."],[".",".",".",".","."],[".",".",".",".","."]],[[".",".",".",".","."],[0,1,2,3,4],[".",".",".",".","."],[".",".",".",".","."],[".",".",".",".","."],[".",".",".",".","."]],[[0,1,2,3,4],[".",".",".",".","."],[".",".",".",".","."],[".",".",".",".","."],[".",".",".",".","."],[".",".",".",".","."]]],"numberofstrings":6,"notes":["E","B","G","D","A","E","B"],"capo":0,"stringnotes":["E4","B3","G3","D3","A2","E2"],"comments":["Stave 1:","Stave 2:","Stave 3:","Stave 4:","Stave 5:","Stave 6:"],"timing":[["W","W","W","W","W"],["W","W","W","W","W"],["W","W","W","W","W"],["W","W","W","W","W"],["W","W","W","W","W"],["W","W","W","W","W"]],"timingvisible":false,"tabcounter":5,"stave":5,"totalstaves":6,"instrument":"6guitar","selectedtuning":"6_standard","version":"13"}

Member for

9 months 3 weeks
Submitted by woundforsound on Tue, 2020-01-28 17:06