5 String Bass Lesson 1 - Chromatic finger exercise

Chords

01234567891011121314151617181920212223
E
B
G
D
A
E
B
0 1 2 3 4 5 6 7 8 9 10 11 12 13 14 15 16 17 18 19 20 21 22 23
(/) Slide Up  (\) Slide Down  (h) Hammer On  (p) Pull Off  (b) Bend (r) Release (v) Vibrato

Stave 1:

G|-----------------
D|-----------------
A|-----------------
E|-----------------
B|--0--1--2--3--4--

Stave 2:

G|-----------------
D|-----------------
A|-----------------
E|--0--1--2--3--4--
B|-----------------

Stave 3:

G|-----------------
D|-----------------
A|--0--1--2--3--4--
E|-----------------
B|-----------------

Stave 4:

G|-----------------
D|--0--1--2--3--4--
A|-----------------
E|-----------------
B|-----------------

Stave 5:

G|--0--1--2--3--4--
D|-----------------
A|-----------------
E|-----------------
B|-----------------

							http://www.guitartabcreator.com
Instruments
{"title":"5 String Bass Lesson 1 - Chromatic finger exercise","strings":[[[".",".",".",".","."],[".",".",".",".","."],[".",".",".",".","."],[".",".",".",".","."],[0,1,2,3,4]],[[".",".",".",".","."],[".",".",".",".","."],[".",".",".",".","."],[0,1,2,3,4],[".",".",".",".","."]],[[".",".",".",".","."],[".",".",".",".","."],[0,1,2,3,4],[".",".",".",".","."],[".",".",".",".","."]],[[".",".",".",".","."],[0,1,2,3,4],[".",".",".",".","."],[".",".",".",".","."],[".",".",".",".","."]],[[0,1,2,3,4],[".",".",".",".","."],[".",".",".",".","."],[".",".",".",".","."],[".",".",".",".","."]]],"numberofstrings":5,"notes":["G","D","A","E","B"],"capo":0,"stringnotes":["G2","D2","A1","E1","B0"],"comments":["Stave 1:","Stave 2:","Stave 3:","Stave 4:","Stave 5:"],"timing":[["W","W","W","W","W"],["W","W","W","W","W","W"],["W","W","W","W","W"],["W","W","W","W","W"],["W","W","W","W","W"]],"timingvisible":false,"tabcounter":5,"stave":4,"totalstaves":5,"instrument":"5bass","selectedtuning":"5bass_standard","version":"13"}

Member for

8 months 4 weeks
Submitted by woundforsound on Tue, 2020-01-28 17:11