5 string Bass lesson 1 - B major open

Chords

01234567891011121314151617181920212223
E
B
G
D
A
E
B
0 1 2 3 4 5 6 7 8 9 10 11 12 13 14 15 16 17 18 19 20 21 22 23
(/) Slide Up  (\) Slide Down  (h) Hammer On  (p) Pull Off  (b) Bend (r) Release (v) Vibrato

Stave 1:

G|----------------------------
D|----------------------------
A|----------------------------
E|----------------------------
B|--0--2--4--5--7--9--11--12--

Stave 2:

G|----------------------------
D|----------------------------
A|----------------------------
E|--0--2--4--5--7--9--11--12--
B|----------------------------

Stave 3:

G|----------------------------
D|----------------------------
A|--0--2--4--5--7--9--11--12--
E|----------------------------
B|----------------------------

Stave 4:

G|----------------------------
D|--0--2--4--5--7--9--11--12--
A|----------------------------
E|----------------------------
B|----------------------------

Stave 5:

G|--0--2--4--5--7--9--11--12--
D|----------------------------
A|----------------------------
E|----------------------------
B|----------------------------

Stave 6:

G|--------------------------------------------------------------0--1--2--3--4--
D|-----------------------------------------------0--1--2--3--4-----------------
A|--------------------------------0--1--2--3--4--------------------------------
E|-----------------0--1--2--3--4-----------------------------------------------
B|--0--1--2--3--4--------------------------------------------------------------

							http://www.guitartabcreator.com
Instruments
{"title":"5 string Bass lesson 1 - B major open","strings":[[[".",".",".",".",".",".",".","."],[".",".",".",".",".",".",".","."],[".",".",".",".",".",".",".","."],[".",".",".",".",".",".",".","."],[0,2,4,5,7,9,11,12]],[[".",".",".",".",".",".",".","."],[".",".",".",".",".",".",".","."],[".",".",".",".",".",".",".","."],[0,2,4,5,7,9,11,12],[".",".",".",".",".",".",".","."]],[[".",".",".",".",".",".",".","."],[".",".",".",".",".",".",".","."],[0,2,4,5,7,9,11,12],[".",".",".",".",".",".",".","."],[".",".",".",".",".",".",".","."]],[[".",".",".",".",".",".",".","."],[0,2,4,5,7,9,11,12],[".",".",".",".",".",".",".","."],[".",".",".",".",".",".",".","."],[".",".",".",".",".",".",".","."]],[[0,2,4,5,7,9,11,12],[".",".",".",".",".",".",".","."],[".",".",".",".",".",".",".","."],[".",".",".",".",".",".",".","."],[".",".",".",".",".",".",".","."]],[[".",".",".",".",".",".",".",".",".",".",".",".",".",".",".",".",".",".",".",".",0,1,2,3,4],[".",".",".",".",".",".",".",".",".",".",".",".",".",".",".",0,1,2,3,4,".",".",".",".","."],[".",".",".",".",".",".",".",".",".",".",0,1,2,3,4,".",".",".",".",".",".",".",".",".","."],[".",".",".",".",".",0,1,2,3,4,".",".",".",".",".",".",".",".",".",".",".",".",".",".","."],[0,1,2,3,4,".",".",".",".",".",".",".",".",".",".",".",".",".",".",".",".",".",".",".","."]]],"numberofstrings":5,"notes":["G","D","A","E","B"],"capo":0,"stringnotes":["G2","D2","A1","E1","B0"],"comments":["Stave 1:","Stave 2:","Stave 3:","Stave 4:","Stave 5:","Stave 6:"],"timing":[["W","W","W","W","W","W","W","W"],["W","W","W","W","W","W","W","W"],["W","W","W","W","W","W","W","W"],["W","W","W","W","W","W","W","W"],["W","W","W","W","W","W","W","W"],["W","W","W","W","W","W","W","W","W","W","W","W","W","W","W","W","W","W","W","W","W","W","W","W","W"]],"timingvisible":false,"tabcounter":25,"stave":5,"totalstaves":6,"instrument":"5bass","selectedtuning":"5bass_standard","version":"13"}

Member for

9 months 3 weeks
Submitted by woundforsound on Tue, 2020-01-28 16:45